» » »

Elvis Presley - Feel So Bad Tabs

Artists:  A B C D E F G H I J K L M N O P Q R S T U V W X Y Z # 

Feel So Bad Tabs

(ver. 1) Click to play this song!
Elvis Presley
 Rating:
4/5 (4 votes)

 Feel So Bad lessons Tabs too difficult? Try these video lessons and learn fast
 
                          I FEEL SO BAD       ELVIS THE KING PRESLEY
 

                   DAYTONA BEACH FLORIDA



INTRO PIANO RIFF1----------1X

-----------------------------| 
---16-16-16-16---------------|                   
---17-17-17-17---15----------| 
---------------------18--15--| 
-----------------------------| 
-----------------------------|

RIFF1-A     END OF INTRO  2X                   
------------------------------|
------16----------------------|
--16H-17--15------------------| 
-------------18--15-----------| 
------------------------------|
------------------------------|

RIFF2
-------------| 
-------------| 
-------------| SINGING STARTS 
-------------|  
-3-----3---3-| 
-1-----------| FEEL SO BAD

F BASS           B FLAT BASS
------------||----------------| 
------------||----------------|
------------||----------------|
------------||---------3------| 
--------3---||-1----5---------|  
-1---5------||----------------|


PIANO RIFF-3

-------------------|
--16-16-16-16------| 
--17-17-17-17-H-15-|   
-------------------|
-------------------|
-------------------| 
  
RHY--1                0R TRY THIS RHY 
------------------||---------------------|
---------3--3---5-||---------------------|
-3-3-3---3--3---5-||-3--3-3--4-4-4---5---| 
-3-3-3---2--2---5-||-3--3-3--4-4-4---5---|  
-1-1-1---3--3---3-||-1--1-1--2-2-2---3---| 
------------------||---------------------|
YES I GOT MY RAIN CHECK



F BASS**

  FEEL SO BAD; FILLS LIKE A BALL  

  BALL GAME ON A RAINY DAY   RIFF -3


B FLAT BASS

FEEL SO BAD  FILLS LIKE A BALL GAME

ON A RAINY DAY  ((RIFF-3)))


RHY-1

YES I GOT MY RAIN CHECK

BREAK

SHAKE MY HEAD AND WALK AWAY  ((RIFF-3)))

F BASS

O-------OOOO-------0 PEOPLE THATS THE WAY 

 I FEEL     ((RIFF-1-A)))

BFLAT BASS))
 
0------0000---0 PEOPLE THATS THE WAY  

I FEEL      ((RIFF 1-A))


RHY-1
SOMETIMES I THINK I WANT

THEN AGAIN I THINK I DONT  ((RIFF 1-A)))


F BASS

SOMME TIMES I WANT TO STAY HEAR

F BASS

THEN AGAIN I WANT TO LEAVE  ((RIFF -4))


B FLATE BASS

SOME TIMES I WANT TO  LEAVE HERE

THAN AGAIN I WHANT TO STAY (( RIFF-4)))


RHY 1****

 YES I GOT MY TRAIN FAIR  (( BREAK))

PACK MY GRIP AND RIDE AWAY



PIANO RIFF-4
------------------------------------|
-18-18-18-18-----------18-18-18-18--| 
-------------20-18------------------|
-------------------20---------------|
------------------------------------|
------------------------------------|

INTRO TO SAX SOLO       4X 
----------------------------| 
--11H 13-13--13H11----------|  
-------------------13--10---| 
----------------------------| 
----------------------------| 
----------------------------| 

 
SAX SOLO       DISTORTION

F
-----------------------------------|  
-----------------------------------| 
-----------------------------------|
--3B-B--B--3B----5P SLIDE----------| 
-----------------------------------| 
-----------------------------------|
                            WOOOO
          ~~ 
-------------------------| 
-------------------------|
-----1--3-3-3B-----------| 
---3-----------3--3/-----| 
-------------------------| 
-------------------------|
    ~~~  ~~~~
--------------------------| 
--------------------------| 
--------------------------|
--/10--10----10/-8--------| 
--------------------8-----| 
--------------------------|


--------------------------|
--------------------------|
--------------------------| 
8H-10-8H-10-8-----10------| 
--------------------------|
--------------------------|

     ~~~  ~~~
--------------------------|
--------------------------| 
--------------------------|
-8--10B--10B---10H-P-8----| 
-----------------------8--| 
--------------------------|

---------------------------|
---------------------------|
---------------------------|
-10H--8--10H--8H---10-8----| 
-----------------------8---| 
---------------------------|

~~~~~~ 
---|------------------------| 
---|------------------------|
---|------------------------|
---|------------------------|
-8-|----/8-8-8-8--/8-8-8-8--| 
---|------------------------|

---------------------18B--------|
-------------11B----------------|
------3B------------------------|
-10-----------------------------|
----------------------------------------------------------------|

--------------------------| 
--11B--11B-R--9H---11--9--| 
--------------------------|
--------------------------|
--------------------------|
--------------------------| 
 -------------------------| 


-------------------------| 
-------------------------| 
---------------------8---| 
--10-10-10-10-10-10------| 
-------------------------|
-------------------------|


------------------------------|
--11B-11B-11B-11B--R--9-------| 
------------------------10----|
------------------------------|
------------------------------|
------------------------------|



F BASS

O---------OOOO-O

PEOPLE THATS THE WAY I FEEL  ((RIFF 3)))

0-------0000--0

PEOPLE THATS THE WAY I FEEL ((RIFF 4)))

RHY 1

SOME TIMES I THINK I WOUNT

THEN AGAIN I THINH I WILL ((RIFF1 -A)))


O-------OOOO-OO



NOTES***NOTES***NOTES***

THE SAX SOLO AND OTHER FILLS JUST  

LISTEN TO SONG AND THIS WILL GIVE SOME

IDEAS     ON THE SAX SOLO I USE THE NOTES

AND IT WORKS I COULDNT TAB IT  RIGHT 

BUT THOSE ARE THE NOTES 
    











 





 
 
 

























 






 
            
Submit corrections


        Feel So Bad lessons Hard to play? Try these video lessons and learn fast Feel So Bad lessons
        
↑ Back to top | Tablatures and chords for acoustic guitar and electric guitar, ukulele, drums are parodies/interpretations of the original songs. You may use it for private study, scholarship, research or language learning purposes only