» » »

Elvis Presley - Big Hunk O Love Tabs

Artists:  A B C D E F G H I J K L M N O P Q R S T U V W X Y Z # 

Big Hunk O Love Tabs

(ver. 1) Click to play this song!
Elvis Presley
 Rating:
4/5 (4 votes)

 Big Hunk O Love  lessons Tabs too difficult? Try these video lessons and learn fast
 
                Gtr I (E A D G B E) - 'Hank Garland - Electric Guitar'

 Intro
  Q=176
  N.C.
 4/4
  Gtr I
   E E E  E  +Q    Q     E E E  E  +Q    Q
|-11------8--(8)\-----|-11------8--(8)\-----|
|-10-----10-(10)\-----|-10-----10-(10)\-----|
|---------------------|---------------------|
|---------------------|---------------------|
|---------------------|---------------------|
|---------------------|---------------------|


   E E E  E  +Q    Q     E E E  E  +Q    Q
|-11------8--(8)\-----|-11------8--(8)\------||
|-10-----10-(10)\-----|-10-----10-(10)\------||
|---------------------|----------------------||
|---------------------|----------------------||
|---------------------|----------------------||
|---------------------|----------------------||


 Chorus
  N.C.
   E E E  E  +Q    Q     E E E  E  +Q    Q    E  E  E  E  E  E  Q     W
|-11------8--(8)\-----|-11------8--(8)\-----|---11-11-11-11-11-11\--|------|
|-10-----10-(10)\-----|-10-----10-(10)\-----|---13-13-13-13-13-13\--|------|
|---------------------|---------------------|-----------------------|------|
|---------------------|---------------------|-----------------------|------|
|---------------------|---------------------|-----------------------|------|
|---------------------|---------------------|-----------------------|------|


  F                    F7       F               N.C.
   E E E  E  +Q   Q     E  E  E  E  +Q   Q    E   E  E  E  E  E  E  E
|--8------8--(8)-----|-11----11--8--(8)-----|---/11-11-11-11-11-11-11-|
|-10-----10-(10)-----|-10----10-10-(10)-----|---/13-13-13-13-13-13-13-|
|-10-----10-(10)-----|----10----10-(10)-----|-------------------------|
|--------------------|----------------------|-------------------------|
|--------------------|----------------------|-------------------------|
|--------------------|----------------------|-------------------------|


                                        F6 Eb6            N.C.
   E  E  Q    Q  Q    H    Q  E E   E E  E E +Q   Q    Q   Q   Q   Q
|-11-11-11\---------|-------------|-----10-8-(8)-----|----11--11--11--|
|-13-13-13\---------|---------8---|---8-10-8-(8)-----|----13--13--13--|
|------------12-----|-------------|---8-10-8-(8)-----|----------------|
|-------------------|-------------|------------------|----------------|
|-------------------|-------------|------------------|----------------|
|-------------------|-------------|------------------|----------------|


                        1st & 2nd Verses
                      $
                         N.C.
   Q   E  E  +Q    Q     H    E E  E E   E  E E  E Q  Q    H    E E  E E
|-11-----10-(10)------||---------------|-----------------|---------------|
|-13-----10-(10)--10--||---------------|-----------------|---------------|
|-----12--------------||---------------|-----------------|---------------|
|---------------------||---------------|-----------------|---------------|
|---------------------||-------------8-|-9-10-8----------|-------------8-|
|---------------------||--------8-11---|--------11-8-----|--------8-11---|


                                               Chorus
                                                N.C.
  E  E E  E Q  Q    Q  Q  H      Q  Q  Q  Q     Q   Q  Q   Q
|-----------------|------------|-------------||----11--8------|
|-----------------|------------|-------------||----10--8--10--|
|-----------------|------------|-------------||-----------10--|
|-----------------|------------|-------------||---------------|
|-9-10-8----------|------------|-------------||---------------|
|--------11-8-----|-8----------|-8--8--8--8--||---------------|


                                                                       Eb6
  H.       Q    E  E  E  E  E  E  E  E    Q        Q   Q   Q    H    E E E E
|-------------|---11-11-11-11-11-11-11-|-11b11.5---8---8--10--|--------8-8-8-|
|-8-------10--|---10-10-10-10-10-10-10-|-10b10.5--10--10--10--|--------8-8-8-|
|-8-------10--|------------------------|----------------------|--------8-8-8-|
|-------------|------------------------|----------------------|--------------|
|-------------|------------------------|----------------------|--------------|
|-------------|------------------------|----------------------|--------------|


      N.C.
  E E  E     +E   Q  Q    E E E  E E E E E
|-8-8-------------------|---8-8----8-8-8-8-|
|-8-8-10b11-(10)-10-----|---8-8h10-8-8-8-8-|
|-8---------------------|------------------|
|-----------------------|------------------|
|-----------------------|------------------|
|-----------------------|------------------|


                    Piano Solo
          To Coda
                     N.C.
  E E Q  E E E E      E E E  E  +Q    Q
|-8-8-8--8-8-8-8--||-11------8--(8)\------|
|-8-8-8--8-8-8-8--||-10-----10-(10)\------|
|-----------------||----------------------|
|-----------------||----------------------|
|-----------------||----------------------|
|-----------------||----------------------|


   E E E  E  +Q    Q     E E E  E  +Q    Q
|-11------8--(8)\-----|-11------8--(8)\-----|
|-10-----10-(10)\-----|-10-----10-(10)\-----|
|---------------------|---------------------|
|---------------------|---------------------|
|---------------------|---------------------|
|---------------------|---------------------|


   E E E  E  +Q    Q     E E E  E  +Q    Q
|-11------8--(8)\-----|--8------8--(8)\-----|
|-10-----10-(10)\-----|-10-----10-(10)\-----|
|---------------------|---------------------|
|---------------------|---------------------|
|---------------------|---------------------|
|---------------------|---------------------|


   E E E  E  +Q    Q     E E E  E  +Q    Q
|--8------8--(8)\-----|--8------8--(8)\-----|
|-10-----10-(10)\-----|-10-----10-(10)\-----|
|---------------------|---------------------|
|---------------------|---------------------|
|---------------------|---------------------|
|---------------------|---------------------|


   E E E  E  +Q    Q     E E E  E  +Q    Q
|--8------8--(8)\-----|-10-----10-(10)\-----|
|-10-----10-(10)\-----|-12-----12-(12)\-----|
|---------------------|---------------------|
|---------------------|---------------------|
|---------------------|---------------------|
|---------------------|---------------------|


                                                 D.S. al Coda
   E E E  E  +Q    Q    Q  E  E E  E E  E    E  E  E  E Q  Q
|--8------8--(8)\-----|-------8----8----8-|--8--8-11-10-8-----||
|-10-----10-(10)\-----|------10---10---10-|-10-10-11-10-8-----||
|---------------------|-------------------|-------------------||
|---------------------|-------------------|-------------------||
|---------------------|-------------------|-------------------||
|---------------------|-------------------|-------------------||


 Guitar Solo
  &
  N.C.
   E  E E  E  E E  E  E   E  E  E E  S  S E E E    E E  Q       Q   E E
|--8----8--8----8--8----|-8--8----8--8----8-8-8-|-11---11b11.5--8--10----|
|--8----8--8----8--8----|-8--8----8--8----8-8-8-|------10b10.5--8--10----|
|-11s12---11s12---11s12-|---11s12---11s12-------|------------------------|
|-----------------------|-----------------------|------------------------|
|-----------------------|-----------------------|------------------------|
|-----------------------|-----------------------|------------------------|


  E  e  e  e  e  e  e  e    e e  e  e Q   E E
|---11-11-11-11-11-11-11-|-11-8-10-10-8--10---|
|---10-10-10-10-10-10-10-|-10-8-10-10-8--10---|
|------------------------|--------------------|
|------------------------|--------------------|
|------------------------|--------------------|
|------------------------|--------------------|


   e  e e  e Q   E E    e e  e e  e e  e E
|-11-11-8-10-8--10---|-11---11---11---11---|
|-10-10-8-10-8--10---|-10---10---10---10---|
|--------------------|---------------------|
|--------------------|---------------------|
|--------------------|---------------------|
|--------------------|---------------------|


   e  e e  e Q   E E     E  E  E   E  E E  E E
|-11-11-8-10-8--10---|-/10-10-10-/10-10-8-10-8-|
|-10-10-8-10-8--10---|-/10-10-10-/10-10-8-10-8-|
|--------------------|-------------------------|
|--------------------|-------------------------|
|--------------------|-------------------------|
|--------------------|-------------------------|


    Q   E  E  E E Q     E  E E  E  E E  E  E
|-/11\--8-11s10-8----|--8----8--8----8--8----|
|-/11\--8-11s10-8----|--8----8--8----8--8----|
|--------------------|-11s12---11s12---11s12-|
|--------------------|-----------------------|
|--------------------|-----------------------|
|--------------------|-----------------------|


                       3rd Verse
                        N.C.
  E E  E E  E E  E E     Q  Q  H      E E E E Q  Q    W
|-8-8--8-8--8--------||-------------|---------------|------|
|-8-8--8-8--8-8------||-10----------|---------------|------|
|-----10-8-10-8------||-------------|---------------|------|
|---------------10---||-------------|---------------|------|
|--------------------||-------------|-----6-7-------|------|
|--------------------||-------------|---8-----8-----|------|


  E E E E Q  Q    W          Q  Q  H      Q  Q  Q  Q
|---------------|----------|------------|-------------|
|---------------|----------|------------|-------------|
|---------------|----------|------------|-------------|
|---------------|----------|------------|-------------|
|-----6-7-------|----------|------------|-------------|
|---8-----8-----|----------|-8----------|-8-----8-----|


                       Chorus
                        F6  Eb6    F6
  E E  E E  E E  E E     Q  E E Q   Q
|-8-8-11-8--8-8------||-10--8---8--10--|
|-8-8-11-8-10-7-10-8-||-10--8---8--10--|
|---------------10-8-||-10--8---8--10--|
|--------------------||----------------|
|--------------------||----------------|
|--------------------||----------------|


     N.C.
  Q   Q  Q   E E    E E E  E  +E   E  E  E
|----11--8--10---|-/8-8-8-11-(11)-11-11-11-|
|----10--8--10---|-/8-8-8-10-(10)-10-10-10-|
|----------------|-------------------------|
|----------------|-------------------------|
|----------------|-------------------------|
|----------------|-------------------------|


  Q   E E Q   E E   H    Q   Q         Q  Q  H      E  E  E  E  Q       Q
|-8--10---8--10---|---------11b11.5--|-8----------|---11-11-11-11b11.5-----|
|-8--10---8--10---|---------10b10.5--|-8----------|---13-13-13-13b13.5-----|
|-----------------|------------------|------------|------------------------|
|-----------------|------------------|------------|------------------------|
|-----------------|------------------|------------|------------------------|
|-----------------|------------------|------------|------------------------|


   E  E Q  +E  E Q    W           E E E  E  +Q   Q     E E E  E  +Q    Q
|-10s11-8--(8)------|----------|--------------------|--8------8--(8)\-----|
|-10s11-8--(8)---8--|----------|-10-----10-(10)-----|-10-----10-(10)\-----|
|-------------------|----------|-10-----10-(10)-----|---------------------|
|-------------------|----------|--------------------|---------------------|
|-------------------|----------|--------------------|---------------------|
|-------------------|----------|--------------------|---------------------|


   E E E  E  +Q    Q    W           E E E  E  +Q   Q
|--8-----11-(11)\-----|----------|--8------8--(8)-----|
|-10-----10-(10)\-----|----------|-10-----10-(10)-----|
|---------------------|----------|--------------------|
|---------------------|----------|--------------------|
|---------------------|----------|--------------------|
|---------------------|----------|--------------------|


  Q   Q       Q  Q    Q   Q       Q  Q
|----11b11.5--8-----|----11b11.5--8-----*|
|----10b10.5--8-----|----10b10.5--8-----*|
|-------------------|-------------------*|
|-------------------|-------------------*|
|-------------------|-------------------*|
|-------------------|-------------------*|
            
Submit corrections


        Big Hunk O Love  lessons Hard to play? Try these video lessons and learn fast Big Hunk O Love  lessons
        
↑ Back to top | Tablatures and chords for acoustic guitar and electric guitar, ukulele, drums are parodies/interpretations of the original songs. You may use it for private study, scholarship, research or language learning purposes only