» » »

Elvis Presley - Baby Lets Play House Tabs

Artists:  A B C D E F G H I J K L M N O P Q R S T U V W X Y Z # 

Baby Lets Play House Tabs

(ver. 1) Click to play this song!
Elvis Presley
 Rating:
4/5 (4 votes)

 Baby Lets Play House lessons Tabs too difficult? Try these video lessons and learn fast
 
                Gtr I (E A D G B E) - 'Scotty Moore - Electric Guitar'
Gtr II (E A D G B E) - 'Elvis Presley - Acoustic Guitar '


 Intro
  Q=208
 4/4
  Gtr I (El. Gtr.)
             PM--------------------|
  W          H    Q  Q    Q  Q  Q  Q
|----------|------------|-------------|
|----------|------------|-------------|
|----------|------------|-------------|
|----------|------------|-------------|
|----------|------------|-------------|
|----------|------0--0--|-0--4--0--3--|


                                 A
  PM------------------------------------------------------|
  Q  E E Q  Q    Q  E E E E Q    Q  E E Q  Q    Q  Q  E E Q
|--------------|---------------|--------------|---------------|
|--------------|---------------|--------------|---------------|
|--------------|---------------|--------------|---------------|
|--------------|---------------|--------------|---------------|
|--------------|---------------|-0--0-0-0--0--|-0-----0-3-2---|
|-0--0-0-0--0--|-0--0-0-3-3-2--|--------------|----2----------|
|
| Gtr II (Ac. Gtr.)
| W              W               Q  Q   Q  Q    Q  Q  E E Q
|--------------|---------------|-0--0---0--0--|-0--0--0-0-0---|
|--------------|---------------|-2--2---2--2--|-2--2--2-2-2---|
|--------------|---------------|-2--2---2--2--|-2--2--2-2-2---|
|--------------|---------------|-2--2---2--2--|-2--2--2-2-2---|
|--------------|---------------|-0--0---0--0--|-0--0--0-0-0---|
|--------------|---------------|--------------|---------------|


  E                                B7                C7      B7
  PM---------------------------------------------------------------|
  Q  E E Q  E E   Q  Q   E E Q     E E E E E E E E   E E E E E E E E
|---------------|----------------|-----------------|---3-------2------|
|---------------|----------------|---0-------0-----|---------------2--|
|---------------|----------------|-------2-------2s|=3-----3s2--------|
|---------------|----------------|-----1-------1---|-----2-------1----|
|---------------|----4\--2-------|-2-------2-------|-3-------2--------|
|-0--0-0-0--0-0-|-0--------4-2\--|-----------------|------------------|
|
| Q  Q   Q  Q     Q  Q   E E Q     Q   Q   Q   Q     Q   Q   E E Q
|-0--0---0--0---|-0--0---0-0-0---|-2---2---2---2---|-3---3---2-2-2----|
|-0--0---0--0---|-0--0---0-0-0---|-0---0---0---0---|---------0-0-0----|
|-1--1---1--1---|-1--1---1-1-1---|-2---2---2---2---|-3---3---2-2-2----|
|-2--2---2--2---|-2--2---2-2-2---|-1---1---1---1---|-2---2---1-1-1----|
|-2--2---2--2---|-2--2---2-2-2---|-2---2---2---2---|-3---3---2-2-2----|
|-0--0---0--0---|-0--0---0-0-0---|-----------------|------------------|


                                     1st - 4th Verses
                                  $
                                  $$
  E                                   E
  PM------------------------------------------------------------------|
  Q  Q  E E E E   E E E E E E E E     E E E E E E E E   E E E E E E E E
|----0----------|---0-------------||----0-------------|---0---------------|
|---------2-----|-------3---2-----||o-------3---2-----|-------3---2-------|
|-------------0h|=1-------------0h||==1-------------0h|=1-------------0h==|
|----2------2---|-----2-------2---||------2-------2---|-----2-------2-----|
|---------------|-----------------||o-----------------|-------------------|
|-0-----0-------|-0-------0-------||--0-------0-------|-0-------0---------|
|
| Q  Q  E E Q     Q   Q   E E Q       Q   Q   E E Q     Q   Q   E E Q
|-0--0--0-0-0---|-0---0---0-0-0---||--0---0---0-0-0---|-0---0---0-0-0-----|
|-0--0--0-0-0---|-0---0---0-0-0---||o-0---0---0-0-0---|-0---0---0-0-0-----|
|-1--1--1-1-1---|-1---1---1-1-1---||--1---1---1-1-1---|-1---1---1-1-1-----|
|-2--2--2-2-2---|-2---2---2-2-2---||--2---2---2-2-2---|-2---2---2-2-2-----|
|-2--2--2-2-2---|-2---2---2-2-2---||o-2---2---2-2-2---|-2---2---2-2-2-----|
|-0--0--0-0-0---|-0---0---0-0-0---||--0---0---0-0-0---|-0---0---0-0-0-----|


                                           N.C.
  PM-----------------------------------|
  E E E E E E E E   E E E E E E  Q     E E Q  H      W
|---0-------------|---0--------------|-------------|------|
|-------3---2-----|-------3---2-(2)--|-0-----------|------|
|-1-------------0h|=1----------------|-------------|------|
|-----2-------2---|-----2--------2---|-------------|------|
|-----------------|------------------|-------------|------|
|-0-------0-------|-0-------0--------|-0-----------|------|
|
| Q   Q   E E Q     Q   Q   E E  Q     E E Q  H      W
|-0---0---0-0-0---|-0---0---0-0--0---|-0-----------|------|
|-0---0---0-0-0---|-0---0---0-0--0---|-0-----------|------|
|-1---1---1-1-1---|-1---1---1-1--1---|-1-----------|------|
|-2---2---2-2-2---|-2---2---2-2--2---|-2-----------|------|
|-2---2---2-2-2---|-2---2---2-2--2---|-2-----------|------|
|-0---0---0-0-0---|-0---0---0-0--0---|-0-----------|------|


                           Chorus
                            A
                PM-----------------------------------------|
  W          Q  Q  Q  Q     Q  E E E E E E   E E E E E E E E
|----------|-------------||----3-----2-----|---3---2---0------|
|----------|-------------||--------------2-|---------------2--|
|----------|-------------||----0-------0---|-----0-------0----|
|----------|-------------||--------2-------|---------2--------|
|----------|-------------||-0--------------|-0----------------|
|----------|----0--2--4--||----------------|------------------|
|
| W          W              Q  Q   E E Q     Q   Q   E E Q
|----------|-------------||-0--0---0-0-0---|-0---0---0-0-0----|
|----------|-------------||-2--2---2-2-2---|-2---2---2-2-2----|
|----------|-------------||-2--2---2-2-2---|-2---2---2-2-2----|
|----------|-------------||-2--2---2-2-2---|-2---2---2-2-2----|
|----------|-------------||-0--0---0-0-0---|-0---0---0-0-0----|
|----------|-------------||----------------|------------------|


                                                           To Dbl. Coda
                                     B7                C7      B7
  PM-----------------------------------------------------------------|
  E E E E E E E E   E E E E E E Q    E E E E E E E E   E E E E E E E E
|---3---2---0-----|---3---2---0----|-----------------|---3-------2------|
|---------------2-|----------------|---0-------0-----|------------------|
|-----0-------0---|-----0-------0--|-------2-------2s|=3-----3s2-----2--|
|---------2-------|---------2------|-----1-------1---|-----2-------1----|
|-0---------------|-0--------------|-2-------2-------|-3-------2--------|
|-----------------|----------------|-----------------|------------------|
|
| Q   Q   E E Q     Q   Q   E E Q    Q   Q   E E Q     Q   Q   E E Q
|-0---0---0-0-0---|-0---0---0-0-0--|-2---2---2-2-2---|-3---3---2-2-2----|
|-2---2---2-2-2---|-2---2---2-2-2--|-0---0---0-0-0---|---------0-0-0----|
|-2---2---2-2-2---|-2---2---2-2-2--|-2---2---2-2-2---|-3---3---2-2-2----|
|-2---2---2-2-2---|-2---2---2-2-2--|-1---1---1-1-1---|-2---2---1-1-1----|
|-0---0---0-0-0---|-0---0---0-0-0--|-2---2---2-2-2---|-3---3---2-2-2----|
|-----------------|----------------|-----------------|------------------|


                  1.                  2.
         To Coda
  E                                    E
  PM-----------------------------------------------|
  Q  Q  E E E E    E E E E E E E E     E E E E E E Q
|----0-----------|---0--------------||---0------------||
|---------2------|-------3---2-----o||-------2---0----||
|-------------0h=|=1-------------0h=||=1-----------1--||
|----2------2----|-----2-------2----||-----2----------||
|----------------|-----------------o||----------------||
|-0-----0--------|-0-------0--------||-0-------0------||
|
| Q  Q  E E Q      Q   Q   E E Q       Q   Q   E E Q
|-0--0--0-0-0----|-0---0---0-0-0----||-0---0---0-0-0--||
|-0--0--0-0-0----|-0---0---0-0-0---o||-0---0---0-0-0--||
|-1--1--1-1-1----|-1---1---1-1-1----||-1---1---1-1-1--||
|-2--2--2-2-2----|-2---2---2-2-2----||-2---2---2-2-2--||
|-2--2--2-2-2----|-2---2---2-2-2---o||-2---2---2-2-2--||
|-0--0--0-0-0----|-0---0---0-0-0----||-0---0---0-0-0--||


 Guitar Solo
  E
  Q  H        +Q     Q    +E  E    +E   E Q    +Q   H        +Q
|----7--------(7)--|-7----(7)-7----(7)--0----|------7--------(7)--|
|----7b8r=====(7)--|-7b8r=(7)-7b8==(7)r---0--|-(0)--7b8r=====(7)--|
|------------------|-------------------------|--------------------|
|------------------|-------------------------|--------------------|
|------------------|-------------------------|--------------------|
|------------------|-------------------------|--------------------|
|
| Q  Q    E E  Q     Q     Q        E   E Q     Q   Q    E E  Q
|-0--0----0-0--0---|-0-----0--------0---0-0--|--0---0----0-0--0---|
|-0--0----0-0--0---|-0-----0--------0---0-0--|--0---0----0-0--0---|
|-1--1----1-1--1---|-1-----1--------1---1-1--|--1---1----1-1--1---|
|-2--2----2-2--2---|-2-----2--------2---2-2--|--2---2----2-2--2---|
|-2--2----2-2--2---|-2-----2--------2---2-2--|--2---2----2-2--2---|
|-0--0----0-0--0---|-0-----0--------0---0-0--|--0---0----0-0--0---|


                            A
  Q    +E  E    +E   E Q    +Q   Q     +Q    +Q     Q    +E  E    +E   E Q
|-7----(7)-7----(7)--0----|-----------------------|--------------------0----|
|-7b8r=(7)-7b8==(7)r---0--|-(0)--7b8===(7)r==(7)--|-7b8r=(7)-7b8==(7)r---0--|
|-------------------------|------6-----(6)---(6)--|-6----(6)-6----(6)-------|
|-------------------------|-----------------------|-------------------------|
|-------------------------|-----------------------|-------------------------|
|-------------------------|-----------------------|-------------------------|
|
| Q     Q        E   E Q     Q   Q      E  E  Q     Q     Q        E   E Q
|-0-----0--------0---0-0--|--0---0------0--0--0---|-0-----0--------0---0-0--|
|-0-----0--------0---0-0--|--2---2------2--2--2---|-2-----2--------2---2-2--|
|-1-----1--------1---1-1--|--2---2------2--2--2---|-2-----2--------2---2-2--|
|-2-----2--------2---2-2--|--2---2------2--2--2---|-2-----2--------2---2-2--|
|-2-----2--------2---2-2--|--0---0------0--0--0---|-0-----0--------0---0-0--|
|-0-----0--------0---0-0--|-----------------------|-------------------------|


  E
  +Q   Q     +Q    +Q     Q    +E  E    +E   E Q
|------7-----(7)---(7)--|-7----(7)-7----(7)--0----|
|-(0)--7b8===(7)r==(7)--|-7b8r=(7)-7b8==(7)r---0--|
|-----------------------|-------------------------|
|-----------------------|-------------------------|
|-----------------------|-------------------------|
|-----------------------|-------------------------|
|
|  Q   Q      E  E  Q     Q     Q        E   E Q
|--0---0------0--0--0---|-0-----0--------0---0-0--|
|--0---0------0--0--0---|-0-----0--------0---0-0--|
|--1---1------1--1--1---|-1-----1--------1---1-1--|
|--2---2------2--2--2---|-2-----2--------2---2-2--|
|--2---2------2--2--2---|-2-----2--------2---2-2--|
|--0---0------0--0--0---|-0-----0--------0---0-0--|


  B7                             A7
  Q   E        +E   +E   E  Q    Q  E E E E Q
|------------------------------|-----------------|
|----10b10.5==(10)r(10)-10-10--|-8----8---8-8\---|
|------------------------8--8--|-6----6---6-6\---|
|------------------------------|-----------------|
|------------------------------|-----------------|
|------------------------------|-----------------|
|
| Q   Q              E   E  Q    Q  Q   E E Q
|-2---2--------------2---2--2--|-3--3---3-3-3----|
|-0---0--------------0---0--0--|-2--2---2-2-2----|
|-2---2--------------2---2--2--|-2--2---2-2-2----|
|-1---1--------------1---1--1--|-2--2---2-2-2----|
|-2---2--------------2---2--2--|-0--0---0-0-0----|
|------------------------------|-----------------|


                      D.S. al Coda &
  E                                   E
  PM--------------------------------------|
  Q  Q  E E E E   E E E E E E E E     E E E S S S S   Q.
|----0----------|---0--------------||---0-----------/12-----||
|---------2-----|-------3---2------||-------2p0h2p0-/12-----||
|-------------0h|=1-------------0h=||=1---------------------||
|----2------2---|-----2-------2----||-----2-----------------||
|---------------|------------------||-----------------------||
|-0-----0-------|-0-------0--------||-0---------------------||
|
| Q  Q  E E Q     Q   Q   E E Q       Q   Q     E     E  Q
|-0--0--0-0-0---|-0---0---0-0-0----||-0---0-----0-----0--0--||
|-0--0--0-0-0---|-0---0---0-0-0----||-0---0-----0-----0--0--||
|-1--1--1-1-1---|-1---1---1-1-1----||-1---1-----1-----1--1--||
|-2--2--2-2-2---|-2---2---2-2-2----||-2---2-----2-----2--2--||
|-2--2--2-2-2---|-2---2---2-2-2----||-2---2-----2-----2--2--||
|-0--0--0-0-0---|-0---0---0-0-0----||-0---0-----0-----0--0--||


 Guitar Solo
  E
   Q   Q   Q    Q    Q      +E  E +E    Q    E    E  E  Q   E  E  Q
|-12------10---10--|-7------(7)-7-(7)-/12---12-|-12-12-12--10-10-10--|
|-----12--10---10--|-8b8.5r=(8)-8-(8)-/12------|-12-12-12--10-10-10--|
|------------------|---------------------------|---------------------|
|------------------|---------------------------|---------------------|
|------------------|---------------------------|---------------------|
|------------------|---------------------------|---------------------|
|
|  Q   Q   E E  Q    Q       Q     E    E Q       Q     Q   E  E  Q
|--0---0---0-0--0--|-0-------0-----0----0-0----|--0-----0---0--0--0--|
|--0---0---0-0--0--|-0-------0-----0----0-0----|--0-----0---0--0--0--|
|--1---1---1-1--1--|-1-------1-----1----1-1----|--1-----1---1--1--1--|
|--2---2---2-2--2--|-2-------2-----2----2-2----|--2-----2---2--2--2--|
|--2---2---2-2--2--|-2-------2-----2----2-2----|--2-----2---2--2--2--|
|--0---0---0-0--0--|-0-------0-----0----0-0----|--0-----0---0--0--0--|


  Q      +E  E +E    Q    E    E  E  Q   E  E  Q    Q      +E  E +E  E Q
|-7------(7)-7-(7)-/12---12-|-12-12-12--10-10-10--|-7------(7)-7-(7)---7\--|
|-8b8.5r=(8)-8-(8)-/12------|-12-12-12--10-10-10--|-8b8.5r=(8)-8-(8)---7\--|
|---------------------------|---------------------|------------------------|
|---------------------------|---------------------|------------------------|
|---------------------------|---------------------|------------------------|
|---------------------------|---------------------|------------------------|
|
| Q       Q     E    E Q       Q     Q   E  E  Q    Q       Q     E  E Q
|-0-------0-----0----0-0----|--0-----0---0--0--0--|-0-------0-----0--0-0---|
|-0-------0-----0----0-0----|--0-----0---0--0--0--|-0-------0-----0--0-0---|
|-1-------1-----1----1-1----|--1-----1---1--1--1--|-1-------1-----1--1-1---|
|-2-------2-----2----2-2----|--2-----2---2--2--2--|-2-------2-----2--2-2---|
|-2-------2-----2----2-2----|--2-----2---2--2--2--|-2-------2-----2--2-2---|
|-0-------0-----0----0-0----|--0-----0---0--0--0--|-0-------0-----0--0-0---|


    N.C.                            A
                                    PM----------------------------|
  E E E E E E E E   E E E E Q  Q    Q  Q  E E E E   E E E E E E E E
|-----------------|---------------|----3----0-----|---3---0---3------|
|-----------------|---------------|----2----2-----|---2---2---2------|
|-----------------|---------------|-------------0-|---------------0--|
|-----------------|---------------|----2------2---|-----2-------2----|
|-----------------|---------------|-0-------------|-0----------------|
|-0-0-0-0-0-0-0-0-|-0-0-0-0-2--3--|-------0-------|---------0--------|
|
| Q   Q   H         W               Q  Q  E E Q     Q   Q   E E Q
|-0---------------|---------------|-0--0--0-0-0---|-0---0---0-0-0----|
|-0---------------|---------------|-2--2--2-2-2---|-2---2---2-2-2----|
|-1---------------|---------------|-2--2--2-2-2---|-2---2---2-2-2----|
|-2---------------|---------------|-2--2--2-2-2---|-2---2---2-2-2----|
|-2---------------|---------------|-0--0--0-0-0---|-0---0---0-0-0----|
|-0---------------|---------------|---------------|------------------|


                                    B7                C7
  PM----------------------------------------------------------------|
  Q  Q  E E E E   E E E E E E E E   E E E E E E E E   E E E E E E E E
|----3----0-----|---3---0---3-----|-----------------|---3-------2------|
|----2----2-----|---2---2---2-----|---0-------0-----|------------------|
|-------------0-|---------------0-|-------2-------2s|=3-----3s2-----2--|
|----2------2---|-----2-------2---|-----1-------1---|-----2------------|
|-0-------------|-0---------------|-2-------2-------|-3-------2--------|
|-------0-------|---------0-------|-----------------|-------------2----|
|
| Q  Q  E E Q     Q   Q   E E Q     Q   Q   E E Q     Q   Q   E E Q
|-0--0--0-0-0---|-0---0---0-0-0---|-2---2---2-2-2---|-3---3---3-3-3----|
|-2--2--2-2-2---|-2---2---2-2-2---|-0---0---0-0-0---|------------------|
|-2--2--2-2-2---|-2---2---2-2-2---|-2---2---2-2-2---|-3---3---3-3-3----|
|-2--2--2-2-2---|-2---2---2-2-2---|-1---1---1-1-1---|-2---2---2-2-2----|
|-0--0--0-0-0---|-0---0---0-0-0---|-2---2---2-2-2---|-3---3---3-3-3----|
|---------------|-----------------|-----------------|------------------|


                                     Outro
               D.S.S. al Dbl. Coda &&
  E                                   E
  PM----------------------------------------------|
  Q  Q  E E E E   E E E E E E E E     Q  Q  E E E E
|----0----------|---0--------------||----0-----------|
|---------2-----|-------3---2------||---------2------|
|-------------0h|=1-------------0--||-------------0h=|
|----2------2---|-----2-------2----||----2------2----|
|---------------|------------------||----------------|
|-0-----0-------|-0-------0--------||-0-----0--------|
|
| Q  Q  E E Q     Q   Q   E E Q       Q  Q  E E Q
|-0--0--0-0-0---|-0---0---0-0-0----||-0--0--0-0-0----|
|-0--0--0-0-0---|-0---0---0-0-0----||-0--0--0-0-0----|
|-1--1--1-1-1---|-1---1---1-1-1----||-1--1--1-1-1----|
|-2--2--2-2-2---|-2---2---2-2-2----||-2--2--2-2-2----|
|-2--2--2-2-2---|-2---2---2-2-2----||-2--2--2-2-2----|
|-0--0--0-0-0---|-0---0---0-0-0----||-0--0--0-0-0----|


  PM------------------------------------------|
  E E E E E E Q    Q  Q  Q   Q    Q  Q  E E E E
|---0------------|--------------|---------------|
|-------2---0----|--------------|---------------|
|-1--------------|--------------|---------------|
|-----2-------2--|--------------|---------------|
|----------------|--------------|---------------|
|-0-------0------|-0--0--0---0--|-0--0--0-0-3h4-|
|
| Q   Q   E E Q    Q  Q  E E Q    Q  Q  E E Q
|-0---0---0-0-0--|-0--0--0-0-0--|-0--0--0-0-0---|
|-0---0---0-0-0--|-0--0--0-0-0--|-0--0--0-0-0---|
|-1---1---1-1-1--|-1--1--1-1-1--|-1--1--1-1-1---|
|-2---2---2-2-2--|-2--2--2-2-2--|-2--2--2-2-2---|
|-2---2---2-2-2--|-2--2--2-2-2--|-2--2--2-2-2---|
|-0---0---0-0-0--|-0--0--0-0-0--|-0--0--0-0-0---|


                                A
  PM-----------------------------------------------------|
  Q  Q  Q   Q    Q  Q  E E Q    Q  Q  Q   Q    Q  Q  E E Q
|--------------|--------------|--------------|---------------|
|--------------|--------------|--------------|---------------|
|--------------|--------------|--------------|---------------|
|--------------|--------------|--------------|---------------|
|--------------|--------------|-0--0--0---0--|-0--0--2-2-0---|
|-0--0--0---0--|-0--0--0-0-2--|--------------|---------------|
|
| Q  Q  E E Q    Q  Q  E E Q    Q  Q  E E Q    Q  Q  E E Q
|-0--0--0-0-0--|-0--0--0-0-0--|-0--0--0-0-0--|-0--0--0-0-0---|
|-0--0--0-0-0--|-0--0--0-0-0--|-2--2--2-2-2--|-2--2--2-2-2---|
|-1--1--1-1-1--|-1--1--1-1-1--|-2--2--2-2-2--|-2--2--2-2-2---|
|-2--2--2-2-2--|-2--2--2-2-2--|-2--2--2-2-2--|-2--2--2-2-2---|
|-2--2--2-2-2--|-2--2--2-2-2--|-0--0--0-0-0--|-0--0--0-0-0---|
|-0--0--0-0-0--|-0--0--0-0-0--|--------------|---------------|


  E                             B7                C7
  PM------------------------------------------------------------|
  Q  Q  Q   Q    Q  Q  E E Q    E E E E E E E E   E E E E E E E E
|--------------|--------------|-----------------|---3-------2------|
|--------------|--------------|---0-------0-----|------------------|
|--------------|--------------|-------2-------2s|=3-----3s2-----2--|
|--------------|--------------|-----1-------1---|-----2-------1----|
|--------------|--------------|-2-------2-------|-3-------2--------|
|-0--0--0---0--|-0--0--4-4-3--|-----------------|------------------|
|
| Q  Q  E E Q    Q  Q  E E Q    Q   Q   E E Q     Q   Q   E E Q
|-0--0--0-0-0--|-0--0--0-0-0--|-2---2---2-2-2---|-3---3---2-2-2----|
|-0--0--0-0-0--|-0--0--0-0-0--|-0---0---0-0-0---|---------0-0-0----|
|-1--1--1-1-1--|-1--1--1-1-1--|-2---2---2-2-2---|-3---3---2-2-2----|
|-2--2--2-2-2--|-2--2--2-2-2--|-1---1---1-1-1---|-2---2---1-1-1----|
|-2--2--2-2-2--|-2--2--2-2-2--|-2---2---2-2-2---|-3---3---2-2-2----|
|-0--0--0-0-0--|-0--0--0-0-0--|-----------------|------------------|


  E
  PM
  Q   E  E  Q    Q     H      H       +W
|----12-12-12--------|------^12----|-(12)----*|
|----12-12-12--------|------^12----|-(12)----*|
|--------------------|-------------|---------*|
|----11-11-11--------|------^11----|-(11)----*|
|----11-11-11--------|------^11----|-(11)----*|
|-0-------------12\--|-0-----------|---------*|
|
| Q   Q     E E  Q     W              +W
|-0---0-----0-0--0---|-0-----------|--(0)----*|
|-0---0-----0-0--0---|-0-----------|--(0)----*|
|-1---1-----1-1--1---|-1-----------|--(1)----*|
|-2---2-----2-2--2---|-2-----------|--(2)----*|
|-2---2-----2-2--2---|-2-----------|--(2)----*|
|-0---0-----0-0--0---|-0-----------|--(0)----*|
            
Submit corrections


        Baby Lets Play House lessons Hard to play? Try these video lessons and learn fast Baby Lets Play House lessons
        
↑ Back to top | Tablatures and chords for acoustic guitar and electric guitar, ukulele, drums are parodies/interpretations of the original songs. You may use it for private study, scholarship, research or language learning purposes only