Home » E » Elvis Costello »

Elvis Costello - Pump It Up Bass

Artists:  A B C D E F G H I J K L M N O P Q R S T U V W X Y Z # 

Pump It Up Bass

(ver. 2) Click to play this song!
Elvis Costello
-------------------------------------------------------------------------------
			     Pump it Up--Elvis Costello
-------------------------------------------------------------------------------


Tuning: Standard

     Intro
G|-----------------------------------------------------------------------------|
D|-----------------------------------------------------------------------------|
A|------6----7-6-0-1-----------------------------------------------------------|
E|-2--------------------2-2-0-2--0-2-0-----------------------------------------| x3

G|-----------------------------------------------------------------------------|
D|-----------------------------------------------------------------------------|
A|------6----7-6-0-1-----------------------------------------------------------|
E|-2--------------------2-2-3-3-4-4-5------------------------------------------|

    Main Riff
G|-----------------------------------------------------------------------------|
D|-----------------------------------------------------------------------------|
A|-----------------------------------------------------------------------------|
E|7--7--7-6-5-7--7-7--7-6-5----------------------------------------------------|

    Verse
G|-----------------------------------------------------------------------------|
D|-----6----7-6-0-1------------------------------------------------------------|
A|-2-------------------2-2-0-2--0-2-0------------------------------------------|
E|-----------------------------------------------------------------------------|

    Verse Fill (Last Verse)
G|------6----7-6-0-1-----------------------------------------------------------|
D|-2--------------------2-2-0-2--0-2-0-----------------------------------------|
A|-----------------------------------------------------------------------------|
E|-----------------------------------------------------------------------------|

G|---------------------------------7-7-9-9----------------------------9-7-9----7--------|
D|----------------------------9-9-----------------------------------------------9----9--|
A|-----------------------7-7--------------------------------------7-7-------------------|
E|-0-0-0-0-0-0-0-0----------------------0-0-0-0-0-0-0-0---------------------------------|


| /  slide up
| \  slide down
| h  hammer-on
| p  pull-off
| ~  vibrato
| +  harmonic
| x  Mute note
===============================================================================
            
Submit corrections

↑ Back to top | Tablatures and chords for acoustic guitar and electric guitar, ukulele, drums are parodies/interpretations of the original songs. You may use it for private study, scholarship, research or language learning purposes only