Home » E » Eluveitie »

Eluveitie - Inis Mona Tabs

Artists:  A B C D E F G H I J K L M N O P Q R S T U V W X Y Z # 

Inis Mona Tabs

(ver. 2) Click to play this song!
Eluveitie
(Intro)

Tuning: Standard

Intro
This is the part when the Violin is playing in the Beginning.
e|--13-12--10-~-8-~---13-12-10--10-8-------|
B|-----------------------------------10-~--|
G|-----------------------------------------|
D|-----------------------------------------|
A|-----------------------------------------|
E|-----------------------------------------|

|-----8------10-~--8~---13-12--10--8--10-~---|
|--10---10-----------------------------------|
|--------------------------------------------|
|--------------------------------------------|
|--------------------------------------------|
|--------------------------------------------|

There it is, have fun with it.
            
Submit corrections

↑ Back to top | Tablatures and chords for acoustic guitar and electric guitar, ukulele, drums are parodies/interpretations of the original songs. You may use it for private study, scholarship, research or language learning purposes only