» » »

Elton John - Girl At Home Tabs

Artists:  A B C D E F G H I J K L M N O P Q R S T U V W X Y Z # 

Girl At Home Tabs

(ver. 1) Click to play this song!
Elton John
 Rating:
4.3/5 (27 votes)

 Girl At Home lessons Tabs too difficult? Try these video lessons and learn fast
 
                [Intro]

e|--1----|--0----|--3----|--|
B|--1----|--1----|--3----|--|
G|--2----|--0----|--0----|--|
D|--3----|--2----|--0----|--| (2x)
A|--3----|--3----|--2----|--|
E|--1----|-------|--3----|--|


[Verse]

e|-------------------|-------------------|-------------------|-------------------|
B|-------------------|-------------------|-------------------|-------------------|
G|-------------------|--5-5-5-5-5-5-5-5--|-------------------|-------------------|
D|--3-3-3-3-3-3-3-3--|--5-5-5-5-5-5-5-5--|--5-5-5-5-5-5-5-5--|--5-5-5-5-5-5-5-5--| (2x)
A|--3-3-3-3-3-3-3-3--|--3-3-3-3-3-3-3-3--|--5-5-5-5-5-5-5-5--|--5-5-5-5-5-5-5-5--|
E|--1-1-1-1-1-1-1-1--|-------------------|--3-3-3-3-3-3-3-3--|--3-3-3-3-3-3-3-3--|


[Pre-Chorus]

e|-------------------|-------------------|-------------------|-------------------|
B|-------------------|-------------------|-------------------|-------------------|
G|-------------------|--5-5-5-5-5-5-5-5--|-------------------|-------------------|
D|--3-3-3-3-3-3-3-3--|--5-5-5-5-5-5-5-5--|--5-5-5-5-5-5-5-5--|--5-5-5-5-5-5-5-5--| (2x)
A|--3-3-3-3-3-3-3-3--|--3-3-3-3-3-3-3-3--|--5-5-5-5-5-5-5-5--|--5-5-5-5-5-5-5-5--|
E|--1-1-1-1-1-1-1-1--|-------------------|--3-3-3-3-3-3-3-3--|--3-3-3-3-3-3-3-3--|


[Chorus]

e|--1--1--1-1-1-1--|--0--0--0-0-0-0--|--3--3--3-3-3-3--|--3--3--3-3-3-3--|
B|--1--1--1-1-1-1--|--1--1--1-1-1-1--|--3--3--3-3-3-3--|--3--3--3-3-3-3--|
G|--2--2--2-2-2-2--|--0--0--0-0-0-0--|--0--0--0-0-0-0--|--0--0--0-0-0-0--|
D|--3--3--3-3-3-3--|--2--2--2-2-2-2--|--0--0--0-0-0-0--|--0--0--0-0-0-0--| (2x)
A|--3--3--3-3-3-3--|--3--3--3-3-3-3--|--2--2--2-2-2-2--|--2--2--2-2-2-2--|
E|--1--1--1-1-1-1--|-----------------|--3--3--3-3-3-3--|--3--3--3-3-3-3--|

e|--1--1--1-1-1-1--|--0--0--0-0-0-0--|--0--0--0-0-0-0--|--3--3--3-3-3-3--|
B|--1--1--1-1-1-1--|--1--1--1-1-1-1--|--1--1--1-1-1-1--|--3--3--3-3-3-3--|
G|--2--2--2-2-2-2--|--0--0--0-0-0-0--|--2--2--2-2-2-2--|--0--0--0-0-0-0--|
D|--3--3--3-3-3-3--|--2--2--2-2-2-2--|--2--2--2-2-2-2--|--0--0--0-0-0-0--|
A|--3--3--3-3-3-3--|--3--3--3-3-3-3--|--0--0--0-0-0-0--|--2--2--2-2-2-2--|
E|--1--1--1-1-1-1--|-----------------|-----------------|--3--3--3-3-3-3--|

e|--1--1--1-1-1-1--|--0--0--0-0-0-0--|--3--3--3-3-3-3--|--3--3--3-3-3-3--|
B|--1--1--1-1-1-1--|--1--1--1-1-1-1--|--3--3--3-3-3-3--|--3--3--3-3-3-3--|
G|--2--2--2-2-2-2--|--0--0--0-0-0-0--|--0--0--0-0-0-0--|--0--0--0-0-0-0--|
D|--3--3--3-3-3-3--|--2--2--2-2-2-2--|--0--0--0-0-0-0--|--0--0--0-0-0-0--|
A|--3--3--3-3-3-3--|--3--3--3-3-3-3--|--2--2--2-2-2-2--|--2--2--2-2-2-2--|
E|--1--1--1-1-1-1--|-----------------|--3--3--3-3-3-3--|--3--3--3-3-3-3--|


[Verse]

e|-------------------|-------------------|-------------------|-------------------|
B|-------------------|-------------------|-------------------|-------------------|
G|-------------------|--5-5-5-5-5-5-5-5--|-------------------|-------------------|
D|--3-3-3-3-3-3-3-3--|--5-5-5-5-5-5-5-5--|--5-5-5-5-5-5-5-5--|--5-5-5-5-5-5-5-5--| (2x)
A|--3-3-3-3-3-3-3-3--|--3-3-3-3-3-3-3-3--|--5-5-5-5-5-5-5-5--|--5-5-5-5-5-5-5-5--|
E|--1-1-1-1-1-1-1-1--|-------------------|--3-3-3-3-3-3-3-3--|--3-3-3-3-3-3-3-3--|

Guitar nº2:

e|--1--1--1-1-1-1--|--0--0--0-0-0-0--|--3--3--3-3-3-3--|--3--3--3-3-3-3--|
B|--1--1--1-1-1-1--|--1--1--1-1-1-1--|--3--3--3-3-3-3--|--3--3--3-3-3-3--|
G|--2--2--2-2-2-2--|--0--0--0-0-0-0--|--0--0--0-0-0-0--|--0--0--0-0-0-0--|
D|--3--3--3-3-3-3--|--2--2--2-2-2-2--|--0--0--0-0-0-0--|--0--0--0-0-0-0--| (2x)
A|--3--3--3-3-3-3--|--3--3--3-3-3-3--|--2--2--2-2-2-2--|--2--2--2-2-2-2--|
E|--1--1--1-1-1-1--|-----------------|--3--3--3-3-3-3--|--3--3--3-3-3-3--|


[Pre-Chorus]

e|-------------------|-------------------|-------------------|-------------------|
B|-------------------|-------------------|-------------------|-------------------|
G|-------------------|--5-5-5-5-5-5-5-5--|-------------------|-------------------|
D|--3-3-3-3-3-3-3-3--|--5-5-5-5-5-5-5-5--|--5-5-5-5-5-5-5-5--|--5-5-5-5-5-5-5-5--| (2x)
A|--3-3-3-3-3-3-3-3--|--3-3-3-3-3-3-3-3--|--5-5-5-5-5-5-5-5--|--5-5-5-5-5-5-5-5--|
E|--1-1-1-1-1-1-1-1--|-------------------|--3-3-3-3-3-3-3-3--|--3-3-3-3-3-3-3-3--|

Guitar nº2:

e|--1--1--1-1-1-1--|--0--0--0-0-0-0--|--3--3--3-3-3-3--|--3--3--3-3-3-3--|
B|--1--1--1-1-1-1--|--1--1--1-1-1-1--|--3--3--3-3-3-3--|--3--3--3-3-3-3--|
G|--2--2--2-2-2-2--|--0--0--0-0-0-0--|--0--0--0-0-0-0--|--0--0--0-0-0-0--|
D|--3--3--3-3-3-3--|--2--2--2-2-2-2--|--0--0--0-0-0-0--|--0--0--0-0-0-0--| (2x)
A|--3--3--3-3-3-3--|--3--3--3-3-3-3--|--2--2--2-2-2-2--|--2--2--2-2-2-2--|
E|--1--1--1-1-1-1--|-----------------|--3--3--3-3-3-3--|--3--3--3-3-3-3--|


[Chorus]

e|--1--1--1-1-1-1--|--0--0--0-0-0-0--|--3--3--3-3-3-3--|--3--3--3-3-3-3--|
B|--1--1--1-1-1-1--|--1--1--1-1-1-1--|--3--3--3-3-3-3--|--3--3--3-3-3-3--|
G|--2--2--2-2-2-2--|--0--0--0-0-0-0--|--0--0--0-0-0-0--|--0--0--0-0-0-0--|
D|--3--3--3-3-3-3--|--2--2--2-2-2-2--|--0--0--0-0-0-0--|--0--0--0-0-0-0--| (2x)
A|--3--3--3-3-3-3--|--3--3--3-3-3-3--|--2--2--2-2-2-2--|--2--2--2-2-2-2--|
E|--1--1--1-1-1-1--|-----------------|--3--3--3-3-3-3--|--3--3--3-3-3-3--|

e|--1--1--1-1-1-1--|--0--0--0-0-0-0--|--0--0--0-0-0-0--|--3--3--3-3-3-3--|
B|--1--1--1-1-1-1--|--1--1--1-1-1-1--|--1--1--1-1-1-1--|--3--3--3-3-3-3--|
G|--2--2--2-2-2-2--|--0--0--0-0-0-0--|--2--2--2-2-2-2--|--0--0--0-0-0-0--|
D|--3--3--3-3-3-3--|--2--2--2-2-2-2--|--2--2--2-2-2-2--|--0--0--0-0-0-0--|
A|--3--3--3-3-3-3--|--3--3--3-3-3-3--|--0--0--0-0-0-0--|--2--2--2-2-2-2--|
E|--1--1--1-1-1-1--|-----------------|-----------------|--3--3--3-3-3-3--|

e|--1--1--1-1-1-1--|--0--0--0-0-0-0--|--3--3--3-3-3-3--|--3--3--3-3-3-3--|
B|--1--1--1-1-1-1--|--1--1--1-1-1-1--|--3--3--3-3-3-3--|--3--3--3-3-3-3--|
G|--2--2--2-2-2-2--|--0--0--0-0-0-0--|--0--0--0-0-0-0--|--0--0--0-0-0-0--|
D|--3--3--3-3-3-3--|--2--2--2-2-2-2--|--0--0--0-0-0-0--|--0--0--0-0-0-0--|
A|--3--3--3-3-3-3--|--3--3--3-3-3-3--|--2--2--2-2-2-2--|--2--2--2-2-2-2--|
E|--1--1--1-1-1-1--|-----------------|--3--3--3-3-3-3--|--3--3--3-3-3-3--|


[Post-Chorus]

e|--1--1--1-1-1-1--|--0--0--0-0-0-0--|--0--0--0-0-0-0--|--1--1--1-1-1-1--|
B|--1--1--1-1-1-1--|--1--1--1-1-1-1--|--1--1--1-1-1-1--|--1--1--1-1-1-1--|
G|--2--2--2-2-2-2--|--2--2--2-2-2-2--|--0--0--0-0-0-0--|--2--2--2-2-2-2--|
D|--3--3--3-3-3-3--|--2--2--2-2-2-2--|--2--2--2-2-2-2--|--3--3--3-3-3-3--|
A|--3--3--3-3-3-3--|--0--0--0-0-0-0--|--3--3--3-3-3-3--|--3--3--3-3-3-3--|
E|--1--1--1-1-1-1--|-----------------|-----------------|--1--1--1-1-1-1--|

e|--0--0--0-0-0-0--|--3--3--3-3-3-3--|--1--1--1--1--|--1--1--1--1--|
B|--1--1--1-1-1-1--|--3--3--3-3-3-3--|--1--1--1--1--|--1--1--1--1--|
G|--2--2--2-2-2-2--|--0--0--0-0-0-0--|--2--2--2--2--|--2--2--2--2--|
D|--2--2--2-2-2-2--|--0--0--0-0-0-0--|--3--3--3--3--|--3--3--3--3--|
A|--0--0--0-0-0-0--|--2--2--2-2-2-2--|--3--3--3--3--|--3--3--3--3--|
E|-----------------|--3--3--3-3-3-3--|--1--1--1--1--|--1--1--1--1--|


[Bridge]

e|--3----|--0----|--1----|--3----|--3--3--3-3-3-3--|--0--0--0-0-0-0--|--1--1--1-1-1-1--|--3--3--3-3-3-3--|
B|--3----|--1----|--1----|--3----|--3--3--3-3-3-3--|--1--1--1-1-1-1--|--1--1--1-1-1-1--|--3--3--3-3-3-3--|
G|--0----|--2----|--2----|--0----|--0--0--0-0-0-0--|--2--2--2-2-2-2--|--2--2--2-2-2-2--|--0--0--0-0-0-0--|
D|--0----|--2----|--3----|--0----|--0--0--0-0-0-0--|--2--2--2-2-2-2--|--3--3--3-3-3-3--|--0--0--0-0-0-0--|
A|--2----|--0----|--3----|--2----|--2--2--2-2-2-2--|--0--0--0-0-0-0--|--3--3--3-3-3-3--|--2--2--2-2-2-2--|
E|--3----|-------|--1----|--3----|--3--3--3-3-3-3--|-----------------|--1--1--1-1-1-1--|--3--3--3-3-3-3--|


[Chorus]

e|--1----|--0----|--3--3--3-3-3-3--|--3--3--3-3-3-3--|
B|--1----|--1----|--3--3--3-3-3-3--|--3--3--3-3-3-3--|
G|--2----|--0----|--0--0--0-0-0-0--|--0--0--0-0-0-0--|
D|--3----|--2----|--0--0--0-0-0-0--|--0--0--0-0-0-0--|
A|--3----|--3----|--2--2--2-2-2-2--|--2--2--2-2-2-2--|
E|--1----|-------|--3--3--3-3-3-3--|--3--3--3-3-3-3--|

e|--1--1--1-1-1-1--|--0--0--0-0-0-0--|--3--3--3-3-3-3--|--3--3--3-3-3-3--|
B|--1--1--1-1-1-1--|--1--1--1-1-1-1--|--3--3--3-3-3-3--|--3--3--3-3-3-3--|
G|--2--2--2-2-2-2--|--0--0--0-0-0-0--|--0--0--0-0-0-0--|--0--0--0-0-0-0--|
D|--3--3--3-3-3-3--|--2--2--2-2-2-2--|--0--0--0-0-0-0--|--0--0--0-0-0-0--|
A|--3--3--3-3-3-3--|--3--3--3-3-3-3--|--2--2--2-2-2-2--|--2--2--2-2-2-2--|
E|--1--1--1-1-1-1--|-----------------|--3--3--3-3-3-3--|--3--3--3-3-3-3--|

e|--1--1--1-1-1-1--|--0--0--0-0-0-0--|--0--0--0-0-0-0--|--3--3--3-3-3-3--|
B|--1--1--1-1-1-1--|--1--1--1-1-1-1--|--1--1--1-1-1-1--|--3--3--3-3-3-3--|
G|--2--2--2-2-2-2--|--0--0--0-0-0-0--|--2--2--2-2-2-2--|--0--0--0-0-0-0--|
D|--3--3--3-3-3-3--|--2--2--2-2-2-2--|--2--2--2-2-2-2--|--0--0--0-0-0-0--|
A|--3--3--3-3-3-3--|--3--3--3-3-3-3--|--0--0--0-0-0-0--|--2--2--2-2-2-2--|
E|--1--1--1-1-1-1--|-----------------|-----------------|--3--3--3-3-3-3--|

e|--1--1--1-1-1-1--|--0--0--0-0-0-0--|--3--3--3-3-3-3--|--3--3--3-3-3-3--|
B|--1--1--1-1-1-1--|--1--1--1-1-1-1--|--3--3--3-3-3-3--|--3--3--3-3-3-3--|
G|--2--2--2-2-2-2--|--0--0--0-0-0-0--|--0--0--0-0-0-0--|--0--0--0-0-0-0--|
D|--3--3--3-3-3-3--|--2--2--2-2-2-2--|--0--0--0-0-0-0--|--0--0--0-0-0-0--| (2x)
A|--3--3--3-3-3-3--|--3--3--3-3-3-3--|--2--2--2-2-2-2--|--2--2--2-2-2-2--|
E|--1--1--1-1-1-1--|-----------------|--3--3--3-3-3-3--|--3--3--3-3-3-3--|


[Outro]

e|--1--1--1-1-1-1--|--0--0--0-0-0-0--|--3----|--|
B|--1--1--1-1-1-1--|--1--1--1-1-1-1--|--3----|--|
G|--2--2--2-2-2-2--|--0--0--0-0-0-0--|--0----|--|
D|--3--3--3-3-3-3--|--2--2--2-2-2-2--|--0----|--|
A|--3--3--3-3-3-3--|--3--3--3-3-3-3--|--2----|--|
E|--1--1--1-1-1-1--|-----------------|--3----|--|
            
Submit corrections


        Girl At Home lessons Hard to play? Try these video lessons and learn fast Girl At Home lessons
        
↑ Back to top | Tablatures and chords for acoustic guitar and electric guitar, ukulele, drums are parodies/interpretations of the original songs. You may use it for private study, scholarship, research or language learning purposes only