» » »

El Perro Del Mar - From The Valley To The Stars Bass

Artists:  A B C D E F G H I J K L M N O P Q R S T U V W X Y Z # 

From The Valley To The Stars Bass

(ver. 1) Click to play this song!
El Perro Del Mar
 Rating:
4/5 (4 votes)
                G-------0-2-------0-2--------------------------------------------------|
D-0-2-3-----0-2-3------------------------------------------------------|
A----------------------------------------------------------------------|
E----------------------------------------------------------------------|

G-------0-2-------3-2--------------------------------------------------|
D-0-2-3-----0-2-3------------------------------------------------------|
A----------------------------------------------------------------------|
E----------------------------------------------------------------------|
            
Submit corrections

↑ Back to top | Tablatures and chords for acoustic guitar and electric guitar, ukulele, drums are parodies/interpretations of the original songs. You may use it for private study, scholarship, research or language learning purposes only