Home » E » El Michels Affair »

El Michels Affair - Glaciers Of Ice Tabs

Artists:  A B C D E F G H I J K L M N O P Q R S T U V W X Y Z # 

Glaciers Of Ice Tabs

(ver. 1) Click to play this song!
El Michels Affair
Tuning: Standard
    Dm       Cm
e|--10-------8----8-------------8-------------8------------------------------|
B|--10-------8------8---8---------8---8---------8---8------------------------|
G|--10-------8--------8---8---------8---8---------8---8----------------------|
D|---------------------------------------------------------------------------|
A|---------------------------------------------------------------------------|
E|---------------------------------------------------------------------------|

    Dm     Cm 
e|--10-----8--8----8----------8-----------8----------------------------------|
B|--10-----8--8------8---8------8---8-------8---8----------------------------|
G|--10-----8--8--------8---8------8---8-------8---8--------------------------|
D|---------------------------------------------------------------------------|
A|---------------------------------------------------------------------------| x3
E|---------------------------------------------------------------------------| 
 
Chorus
  Cm Dm   Ebm                                                   Bdim
e|-8-10---11-11--------------11----------------11------------------10--------|
B|-8-10---------11----11--------11----11----------11----11--------9--9-------|
G|-8-10------------11----11--------11----11----------11----11---10-----10----|
D|---------------------------------------------------------------------------|
A|---------------------------------------------------------------------------|
E|---------------------------------------------------------------------------|
  Ebm                                              Bdim
e|--11--------------11--------------11------------------10-------------------|
B|-----11----11--------11----11-------11----11--------9----9-----------------|
G|--------11----11--------11----11-------11----11---10-------10--------------|
D|---------------------------------------------------------------------------|
A|---------------------------------------------------------------------------| x2
E|---------------------------------------------------------------------------|
Bdim
e|------10--------------10------------10-----------10------------------------|
B|----9----9----------9----9--------9----9-------9---9-----------------------|
G|-10--------10----10--------10---10-------10--10------10--------------------|
D|---------------------------------------------------------------------------|
A|---------------------------------------------------------------------------| 
E|---------------------------------------------------------------------------|            
Submit corrections

↑ Back to top | Tablatures and chords for acoustic guitar and electric guitar, ukulele, drums are parodies/interpretations of the original songs. You may use it for private study, scholarship, research or language learning purposes only