Home » E » El Michels Affair »

El Michels Affair - Cream Tabs

Artists:  A B C D E F G H I J K L M N O P Q R S T U V W X Y Z # 

Cream Tabs

(ver. 1) Click to play this song!
El Michels Affair
Tuning: Standard

Intro into Verse
(quick)F#m   Bm (repeat as needed)
e|-------------------7-9--9-7h9p7-----------------7-9--9-7h9p7---------------|
B|---2-------------7--------------7-------------7--------------7-------------|
G|---2-----------7------------------7---------7------------------7-----------|
D|---4---------9----------------------------9--------------------------------|
A|---4-----------------------------------------------------------------------|
E|---2-------7------------------------77-------------------------------------|

Chorus (with filler licks)
      F#m7 
e|--8/9-----14---9-------8/9-----12----9-------------------------------------|
B|--9/10----10---10------9/10----10---10-------------------------------------|
G|--8/9-----9----9-------8/9------9----9-------------------------------------|
D|-10/11----11---11-----10/11----11---11-------------------------------------|
A|--8/9------------------8/9-------------------------------------------------|
E|---------------------------------------------------------------------------|

      F#m7           Fill 1                       Fill 2
e|--8/9-----14---9---------------8/9-----12----9-----------------------------|
B|--9/10----10---10--10h12p10----9/10----10---10----------10-----------------|
G|--8/9-----9----9----9-------9--8/9------9----9--------9--------------------|
D|-10/11----11---11--11---------10/11----11---11-----11----------------------|
A|--8/9--------------------------8/9---------------9-------------------------|
E|---------------------------------------------------------------------------|

      F#m7 (piano comes in)                 Fill 3
e|--8/9-----14---9-------8/9-----12----9-------------------------------------|
B|--9/10----10---10------9/10----10---10-------12p10-------------------------|
G|--8/9-----9----9-------8/9------9----9--------9----9-----------------------|
D|-10/11----11---11-----10/11----11---11-------11------11--------------------|
A|--8/9------------------8/9-------------------------------------------------|
E|---------------------------------------------------------------------------|

      F#m7 
e|--8/9-----14---9-------8/9-----12----9-------------------------------------|
B|--9/10----10---10------9/10----10---10-------------------------------------|
G|--8/9-----9----9-------8/9------9----9-------------------------------------|
D|-10/11----11---11-----10/11----11---11-------------------------------------|
A|--8/9------------------8/9-------------------------------------------------|
E|---------------------------------------------------------------------------|

Intro into Verse
(quick)F#m   Bm (repeat as needed)
e|-------------------7-9--9-7h9p7-----------------7-9--9-7h9p7---------------|
B|---2-------------7--------------7-------------7--------------7-------------|
G|---2-----------7------------------7---------7------------------7-----------|
D|---4---------9----------------------------9--------------------------------|
A|---4-----------------------------------------------------------------------| x4
E|---2-------7------------------------7--------------------------------------|            
Submit corrections

↑ Back to top | Tablatures and chords for acoustic guitar and electric guitar, ukulele, drums are parodies/interpretations of the original songs. You may use it for private study, scholarship, research or language learning purposes only