» » »

Elliot Moss - Even Great Things Tabs

Artists:  A B C D E F G H I J K L M N O P Q R S T U V W X Y Z # 

Even Great Things Tabs

(ver. 1) Click to play this song!
Elliot Moss
 Rating:
3.1/5 (27 votes)

 Even Great Things  lessons Tabs too difficult? Try these video lessons and learn fast
 
                Intro:

e|--/9----7----4--|
B|--/9----9----5--|
G|--/9----8----4--|
D|----------------|
A|----------------|
E|----------------|

Interlude:

e|--9--------9-----7--------7-----4--------4-----4--------4-----|
B|-----9--------9-----9--------9-----5--------5-----5--------5--|
G|--9-----9--------8-----8--------4-----4--------4-----4--------|
D|--------------------------------------------------------------|
A|--------------------------------------------------------------|
E|--------------------------------------------------------------|

|--9--------9-----7------------7--4--------4-----4--------4----|
|-----9--------9-----9-----10--------5--------5-----5--------5-|
|--9-----9--------8-----8---------4-----4--------4-----4-------|
|--------------------------------------------------------------|
|--------------------------------------------------------------|
|--------------------------------------------------------------|

Verse:

e|--9--------9-----7--------7-----4--------4-----4--------4-----|
B|-----9--------9-----9--------9-----5--------5-----5--------5--|
G|--9-----9--------8-----8--------4-----4--------4-----4--------|
D|--------------------------------------------------------------|
A|--------------------------------------------------------------|
E|--------------------------------------------------------------|

|--9--------9-----7--------7-----4--------4-----4--------4-----|
|-----9--------9-----9--------9-----5--------5-----5--------5--|
|--9-----9--------8-----8--------4-----4--------4-----4--------|
|--------------------------------------------------------------|
|--------------------------------------------------------------|
|--------------------------------------------------------------|

Chorus:

e|--5--------5-----5--------5-----4--------4-----4--------4-----|
B|-----5--------5-----5--------5-----5--------5-----5--------5--|
G|--6-----6--------5-----5--------4-----4--------4-----4--------|
D|--------------------------------------------------------------|
A|--------------------------------------------------------------|
E|--------------------------------------------------------------|

|--5--------5-----5--------5-----4--------4-----4--------4-----|
|-----5--------5-----5--------5-----5--------5-----5--------5--|
|--6-----6--------5-----5--------4-----4--------4-----4--------|
|--------------------------------------------------------------|
|--------------------------------------------------------------|
|--------------------------------------------------------------|            
Submit corrections


        Even Great Things  lessons Hard to play? Try these video lessons and learn fast Even Great Things  lessons
        
↑ Back to top | Tablatures and chords for acoustic guitar and electric guitar, ukulele, drums are parodies/interpretations of the original songs. You may use it for private study, scholarship, research or language learning purposes only