Home » E » Elliot Minor »

Elliot Minor - Solaris Tabs

Artists:  A B C D E F G H I J K L M N O P Q R S T U V W X Y Z # 

Solaris Tabs

(ver. 1) Click to play this song!
Elliot Minor
Solaris                                                                       


                           Elliot Minor
Alex Davies

Intro
    
E||----------------------------|----------------------------------|
B||----------------------------|----------------------------------|
G||----------------------------|--7-7-7-7-7-7-7-7-9-9-9-9-9-9-9-9-|
D||--7-7------7-7------7-7-x-x-|--7-7-7-7-7-7-7-7-9-9-9-9-9-9-9-9-|
A||--7-7------7-7------7-7-x-x-|--5-5-5-5-5-5-5-5-7-7-7-7-7-7-7-7-|
E||--5-5------5-5------5-5-x-x-|----------------------------------|

 
Ed comes in here.
        
--------------------------|--------------------------|-------------------|
--------------------------|--------------------------|-------------------|
--------------------------|--------------5----5--5-5-|-------------------|
--7----7--7-7-7----7--7-7-|--3----3--3-3-5----5--5-5-|--7----------------|
--7----7--7-7-7----7--7-7-|--3----3--3-3-3----3--3-3-|--7----------------|
--5----5--5-5-5----5--5-5-|--1----1--1-1-------------|--5----------------|

Ed Minton

-----8-7----3-5----8-7----3-5-|-----5-3-------------------------|
------------------------------|----------1-3-5---5-(5)s-3s--1-0-|
------------------------------|---------------------------------|
------------------------------|---------------------------------|
------------------------------|---------------------------------|
------------------------------|---------------------------------|

Verse :
 
Clean guitar
----------------------|----------------------|--------------------------|
--10--------10--------|--10---------8--------|--10--------10----10--10--|
---9---------9--------|--10---------9--------|---9---------9-----9---9--|
---7---------7--------|--10--------10--------|---7---------7-----7---7--|
---0---------0--------|---8--------10--------|---0---------0-----0---0--|
----------------------|-------------8--------|--------------------------|

                                                   
------------------------------|
--10----10--10---8-----8---8--|
--10----10--10---9-----9---9--|
--10----10--10--10----10--10--|
---8-----8---8--10----10--10--|
-----------------8-----8---8--|

pre-chorus
  
-------------------|
-------------------|
-----------5-5-5-5-|
-----------5-5-5-5-|
-----------3-3-3-3-|
-------------------|
Chorus
  
---------------------------|---------------------------|
---------------------------|---------------------------|
---------------------------|--------------5-5--5---5-5-|
--5----5--5-5-7-7--7---7-7-|--3----3--3-3-5-5--5---5-5-|
--5----5--5-5-7-7--7---7-7-|--3----3--3-3-3-3--3---3-3-|
--3----3--3-3-5-5--5---5-5-|--1----1--1-1--------------|

 
---------------------------|---------------------------|
---------------------------|---------------------------|
---------------------------|--------------5-5--5---5-5-|
--5----5--5-5-7-7--7---7-7-|--3----3--3-3-5-5--5---5-5-|
--5----5--5-5-7-7--7---7-7-|--3----3--3-3-3-3--3---3-3-|
--3----3--3-3-5-5--5---5-5-|--1----1--1-1--------------|


--------------------------|------------------------------|
--6----6--6-6-5----5--5-5-|------------------------------|
--7----7--7-7-5----5--5-5-|--7---7-9---9-10---10-x-x-x-x-|
--7----7--7-7-7----7--7-7-|--7---7-9---9-10---10-x-x-x-x-|
--5----5--5-5-7----7--7-7-|--5---5-7---7--8----8-x-x-x-x-|
--------------5----5--5-5-|------------------------------|

 
---------------------------|---------------------------|
---------------------------|---------------------------|
--------------5-5--5---5-5-|--------------5-5--5---5-5-|
--5----5--5-5-5-5--5---5-5-|--3----3--3-3-5-5--5---5-5-|
--5----5--5-5-3-3--3---3-3-|--3----3--3-3-3-3--3---3-3-|
--3----3--3-3--------------|--1----1--1-1--------------|

 
--------------------------|--------------------------|
--------------------------|--------------------------|
--------------------------|--------------5----5--5-5-|
--7----7--7-7-7----7--7-7-|--3----3--3-3-5----5--5-5-|
--7----7--7-7-7----7--7-7-|--3----3--3-3-3----3--3-3-|
--5----5--5-5-5----5--5-5-|--1----1--1-1-------------|

           
--------------------------|--------------------------|-------------------|
--------------------------|--------------------------|-------------------|
--------------------------|--------------5----5--5-5-|-------------------|
--7----7--7-7-7----7--7-7-|--3----3--3-3-5----5--5-5-|--7----------------|
--7----7--7-7-7----7--7-7-|--3----3--3-3-3----3--3-3-|--7----------------|
--5----5--5-5-5----5--5-5-|--1----1--1-1-------------|--5----------------|

start 2nd verse
Clean guitar

----------------------|----------------------|--------------------------|
--10--------10--------|--10---------8--------|--10--------10----10--10--|
---9---------9--------|--10---------9--------|---9---------9-----9---9--|
---7---------7--------|--10--------10--------|---7---------7-----7---7--|
---0---------0--------|---8--------10--------|---0---------0-----0---0--|
----------------------|-------------8--------|--------------------------|

                                                   
------------------------------|
--10----10--10---8-----8---8--|
--10----10--10---9-----9---9--|
--10----10--10--10----10--10--|
---8-----8---8--10----10--10--|
-----------------8-----8---8--|

mid 2nd Verse

--------------------------|--------------------------|
--6----6--6-6-5----5--5-5-|--6----6--6-6-5----5--5-5-|
--7----7--7-7-5----5--5-5-|--7----7--7-7-5----5--5-5-|
--7----7--7-7-7----7--7-7-|--7----7--7-7-7----7--7-7-|
--5----5--5-5-7----7--7-7-|--5----5--5-5-7----7--7-7-|
--------------5----5--5-5-|--------------5----5--5-5-|
  
--------------------------|------------------------------|
--6----6--6-6-5----5--5-5-|------------------------------|
--7----7--7-7-5----5--5-5-|--7---7-9---9-10---10-10--10--|
--7----7--7-7-7----7--7-7-|--7---7-9---9-10---10-10--10--|
--5----5--5-5-7----7--7-7-|--5---5-7---7--8----8--8---8--|
--------------5----5--5-5-|------------------------------|

chorus 2
---------------------------|---------------------------|
---------------------------|---------------------------|
---------------------------|--------------5-5--5---5-5-|
--5----5--5-5-7-7--7---7-7-|--3----3--3-3-5-5--5---5-5-|
--5----5--5-5-7-7--7---7-7-|--3----3--3-3-3-3--3---3-3-|
--3----3--3-3-5-5--5---5-5-|--1----1--1-1--------------|

---------------------------|---------------------------|
---------------------------|---------------------------|
---------------------------|--------------5-5--5---5-5-|
--5----5--5-5-7-7--7---7-7-|--3----3--3-3-5-5--5---5-5-|
--5----5--5-5-7-7--7---7-7-|--3----3--3-3-3-3--3---3-3-|
--3----3--3-3-5-5--5---5-5-|--1----1--1-1--------------|

--------------------------|------------------------------|
--6----6--6-6-5----5--5-5-|------------------------------|
--7----7--7-7-5----5--5-5-|--7---7-9---9-10---10-x-x-x-x-|
--7----7--7-7-7----7--7-7-|--7---7-9---9-10---10-x-x-x-x-|
--5----5--5-5-7----7--7-7-|--5---5-7---7--8----8-x-x-x-x-|
--------------5----5--5-5-|------------------------------|


---------------------------|---------------------------|
---------------------------|---------------------------|
--------------5-5--5---5-5-|--------------5-5--5---5-5-|
--5----5--5-5-5-5--5---5-5-|--3----3--3-3-5-5--5---5-5-|
--5----5--5-5-3-3--3---3-3-|--3----3--3-3-3-3--3---3-3-|
--3----3--3-3--------------|--1----1--1-1--------------|

pre-solo/break
  
--------------------------------------------------|
--------------------------------------------------|
--------------------------------------------------|
--------------------------------------------------|
--5--5--5--5--5--5--5--5--5--5--5--5--5--5--5--5--|
--3--3--3--3--3--3--3--3--3--3--3--3--3--3--3--3--|


  Solo
                                                    
--------------------------------------|----------------------|
--------------------------------------|----------------------|
----------------------4-4-4-4-4-4-4-4-|----------------------|
--5--5--5--5--5-5-5-5-5-5-5-5-5-5-5-5-|--7----7----7----7----|
--5--5--5--5--5-5-5-5-5-5-5-5-5-5-5-5-|----------------------|
--3--3--3--3--3-3-3-3-3-3-3-3-3-3-3-3-|----------------------|



------------------------|--------------------------------|
------------------------|--x--x-x-x-x-x-x-x--x-x-x-x-x-x-|
------------------------|--7--9-9-5-5-9-9-x--9-9-5-5-9-9-|
--7----5--0-2----L----L-|--7--7-7-7-7-7-7-7--7-7-7-7-7-7-|
------------------------|--x--x-x-x-x-x-x-x--x-x-x-x-x-x-|
------------------------|--------------------------------|


 
------------------------------|---------------------------|
------------------------------|---------------------------|
--10-10-10-10-9-----12--------|---------------------------|
-----------------10-----------|--5----5--5-5-7-7--7---7-7-|
------------------------------|--5----5--5-5-7-7--7---7-7-|
------------------------------|--3----3--3-3-5-5--5---5-5-|


 
---------------------------|---------------------------|
---------------------------|---------------------------|
--------------5-5--5---5-5-|---------------------------|
--3----3--3-3-5-5--5---5-5-|--5----5--5-5-7-7--7---7-7-|
--3----3--3-3-3-3--3---3-3-|--5----5--5-5-7-7--7---7-7-|
--1----1--1-1--------------|--3----3--3-3-5-5--5---5-5-|



---------------------------|--------------------------|
---------------------------|--6----6--6-6-5----5--5-5-|
--------------5-5--5---5-5-|--7----7--7-7-5----5--5-5-|
--3----3--3-3-5-5--5---5-5-|--7----7--7-7-7----7--7-7-|
--3----3--3-3-3-3--3---3-3-|--5----5--5-5-7----7--7-7-|
--1----1--1-1--------------|--------------5----5--5-5-|

 
---------------------------|---------------------------|
---------------------------|---------------------------|
--7---7-9---9-10---10------|--------------5-5--5---5-5-|
--7---7-9---9-10---10------|--5----5--5-5-5-5--5---5-5-|
--5---5-7---7--8----8------|--5----5--5-5-3-3--3---3-3-|
---------------------------|--3----3--3-3--------------|


---------------------------|---------------------------|
---------------------------|---------------------------|
--------------5-5--5---5-5-|---------------------------|
--3----3--3-3-5-5--5---5-5-|--5----5--5-5-7-7--7---7-7-|
--3----3--3-3-3-3--3---3-3-|--5----5--5-5-7-7--7---7-7-|
--1----1--1-1--------------|--3----3--3-3-5-5--5---5-5-|


---------------------------|---------------------------|
---------------------------|---------------------------|
--------------5-5--5---5-5-|---------------------------|
--3----3--3-3-5-5--5---5-5-|--5----5--5-5-7-7--7---7-7-|
--3----3--3-3-3-3--3---3-3-|--5----5--5-5-7-7--7---7-7-|
--1----1--1-1--------------|--3----3--3-3-5-5--5---5-5-|



---------------------------|--------------------------|
---------------------------|--6----6--6-6-5----5--5-5-|
--------------5-5--5---5-5-|--7----7--7-7-5----5--5-5-|
--3----3--3-3-5-5--5---5-5-|--7----7--7-7-7----7--7-7-|
--3----3--3-3-3-3--3---3-3-|--5----5--5-5-7----7--7-7-|
--1----1--1-1--------------|--------------5----5--5-5-|



---------------------------|------------|---------------------------|
---------------------------|------------|---------------------------|
--7---7-9---9-10----L----L-|--L---------|---------------------------|
--7---7-9---9-10----L----L-|--L---------|--5----5--5-5-7-7--7---7-7-|
--5---5-7---7--8----L----L-|--L---------|--5----5--5-5-7-7--7---7-7-|
---------------------------|------------|--3----3--3-3-5-5--5---5-5-|

         
---------------------------|----|----|----||
---------------------------|----|----|----||
--------------5-5--5---5-5-|----|----|----||
--3----3--3-3-5-5--5---5-5-|----|----|----||
--3----3--3-3-3-3--3---3-3-|----|----|----||
--1----1--1-1--------------|----|----|----||




Duration Legend
---------------
W - whole
H - half
Q - quarter
E - 8th
S - 16th
T - 32nd
X - 64th
. - note dotted
|-n-|  - n-tuplets


Tablature Legend
----------------
L - tied note
x - dead note
g - grace note
(n) - ghost note
> - accentuded note
NH - natural harmonic
AH - artificial harmonic
TH - tapped harmonic
SH - semi harmonic
PH - pitch harmonic
h - hammer on
p - pull off
b - bend
br - bendRelease
pb - preBend
pbr - preBendRelease
brb - bendReleaseBend
\n/ - tremolo bar dip
\n - tremolo bar dive
-/n - tremolo bar Release up
/n\ - tremolo bar inverted dip
/n - tremolo bar return
-\n - tremolo bar Release down
S - shift slide
s - legato slide
/ -  slide into from below or out of upwards
\ -  slide into from above or out of downwards
~ - vibrato
W - wide vibrato
tr - trill
TP - tremolo picking
T - tapping
S - slap
P - pop
< - fade in
^ - brush up
v - brush down
            
Submit corrections

↑ Back to top | Tablatures and chords for acoustic guitar and electric guitar, ukulele, drums are parodies/interpretations of the original songs. You may use it for private study, scholarship, research or language learning purposes only