Home » E » Ellie Goulding »

Ellie Goulding - Love Me Like You Do Tabs

Artists:  A B C D E F G H I J K L M N O P Q R S T U V W X Y Z # 

Love Me Like You Do Tabs

(ver. 1) Click to play this song!
Ellie Goulding

     Q     Q    Q     Q        Q    Q     Q     Q       Q     Q    Q    Q     
E||-------------------------|------------------------|-----------------------|
B||-------------------------|------------------------|-----------------------|
G||--5h----8----8~----5h----|--8----8~----5h----8----|--8~----6----6----5----|
D||-------------------------|------------------------|-----------------------|
A||-------------------------|------------------------|-----------------------|
E||-------------------------|------------------------|-----------------------|


  Q    Q     Q    Q        Q     Q    Q     Q        Q    Q    Q    Q     
------------------------|-------------------------|----------------------|
------------------------|-------------------------|----------------------|
-------5h----8----8~----|--5h----8----8~----5h----|--8----8----6----6----|
--8---------------------|-------------------------|----------------------|
------------------------|-------------------------|----------------------|
------------------------|-------------------------|----------------------|


  Q    Q    Q    Q         Q    Q    Q    Q       Q    Q     Q     Q     
-----------------------|-----------------------|------------------------|
-----------------------|------------------9----|--8----8h----9p----8----|
--5--------------------|--------8----8---------|------------------------|
-------8----6----8\----|--10-------------------|------------------------|
-----------------------|-----------------------|------------------------|
-----------------------|-----------------------|------------------------|


   Q    Q     Q    Q         Q     Q    Q                 
-------------------------|---------------------|--------||
-------------------------|---------------------|--------||
--10----8~----5----8\----|--10~----8----8br----|-------*||
-------------------------|---------------------|-------*||x2
-------------------------|---------------------|--------||
-------------------------|---------------------|--------||


  Q    Q    Q    Q       Q    Q     Q    Q       Q    Q    Q    Q     
----------------------|-----------------------|----------------------|
----------------------|-----------------------|----------------------|
----------------------|-----------------------|----------------------|
--6----8----8----8----|--6----6~----8----8----|--8----8----8----8----|
----------------------|-----------------------|----------------------|
----------------------|-----------------------|----------------------|


  Q    Q     Q    Q       Q    Q    Q     Q       Q    Q    Q      Q      
-----------------------|-----------------------|-------------------------|
-----------------------|-----------------------|-------------------------|
-----------------------|-----------------------|-------------------------|
--6----6~----8----8----|--8----6----6~----8----|--8----8----8\----10/----|
-----------------------|-----------------------|-------------------------|
-----------------------|-----------------------|-------------------------|


  Q    Q     Q    Q       Q    Q    Q     Q       Q    Q    Q    Q     
-----------------------|-----------------------|----------------------|
-----------------------|-----------------------|----------------------|
-----------------------|-----------------------|----------------------|
--6----6~----8----8----|--8----6----6~----8----|--8----8----8----8----|
-----------------------|-----------------------|----------------------|
-----------------------|-----------------------|----------------------|


  Q    Q     Q     Q       Q     Q      Q     Q       Q     Q     Q    Q     
------------------------|--------------------------|------------------------|
------------------------|--------------------------|--------------x----x----|
------------------------|--------------------------|------------------------|
--6----6~----3\----5----|--6h----8\----10----10----|--8~----8~--------------|
------------------------|--------------------------|------------------------|
------------------------|--------------------------|------------------------|


                W                     W                  
   Q      Q     Q     Q         Q     Q     Q      Q     
----------------------------|---------------------------|
--13h----16----16----13h----|--16----16----13h----16----|
----------------------------|---------------------------|
----------------------------|---------------------------|
----------------------------|---------------------------|
----------------------------|---------------------------|


   Q    Q     Q     Q        Q     Q     Q      Q     
-------------------------|---------------------------|
--16---------14----14----|--13----------13h----16----|
-------------------------|--------15-----------------|
-------------------------|---------------------------|
-------------------------|---------------------------|
-------------------------|---------------------------|


   Q      Q      Q     Q         Q      Q     Q      Q     
-----------------------------|----------------------------|
--16~----13h----16----16~----|--13h----16----16~----14----|
-----------------------------|----------------------------|
-----------------------------|----------------------------|
-----------------------------|----------------------------|
-----------------------------|----------------------------|


   Q     Q     Q     Q        Q      Q     Q     Q     
--------------------------|---------------------------|
--14----13----------------|---------------16----16----|
--------------15----13----|--15\----17----------------|
--------------------------|---------------------------|
--------------------------|---------------------------|
--------------------------|---------------------------|


   Q     Q     Q      Q         Q     Q     Q      Q     
--16----15----13h----15h----|--13-----------------------|
----------------------------|--------16----16~----13----|
----------------------------|---------------------------|
----------------------------|---------------------------|
----------------------------|---------------------------|
----------------------------|---------------------------|


   Q      Q     Q      Q         Q     Q      Q     Q     
-----------------------------|--------20b----18----20----|
--16b----16----16b----16~----|--16-----------------------|
-----------------------------|---------------------------|
-----------------------------|---------------------------|
-----------------------------|---------------------------|
-----------------------------|---------------------------|


   Q     Q      Q     Q        Q      Q     Q     Q     
--16----18\----20----------|--20b----18----20----16----|
---------------------16----|---------------------------|
---------------------------|---------------------------|
---------------------------|---------------------------|
---------------------------|---------------------------|
---------------------------|---------------------------|


   Q     Q      Q     Q         Q     Q     Q     Q     
--18-----------------20b----|--18----20----16----18----|
--------18~----16-----------|--------------------------|
----------------------------|--------------------------|
----------------------------|--------------------------|
----------------------------|--------------------------|
----------------------------|--------------------------|


   Q     Q     Q     Q         Q     Q      Q      Q     
--13----16-----------------|----------------------------|
--------------16----16\----|--18----13/----11\----13----|
---------------------------|----------------------------|
---------------------------|----------------------------|
---------------------------|----------------------------|
---------------------------|----------------------------|


   Q      Q     Q     Q        Q     Q     Q    Q     
--16h----18----20----20----|--18----18~----x----x----|
---------------------------|-------------------------|
---------------------------|-------------------------|
---------------------------|-------------------------|
---------------------------|-------------------------|
---------------------------|-------------------------|


   Use your sensation for timing/tempo                    
   Q                                   Q     Q      Q     
--18----------------------------------16----16~----16----|
---------------------------------------------------------|
---------------------------------------------------------|
---------------------------------------------------------|
---------------------------------------------------------|
---------------------------------------------------------|


   Q     Q     Q      Q          Q      Q     Q      Q      
--18----20----20b----20br----|--18h----20------------------|
-----------------------------|---------------16b----16b----|
-----------------------------|-----------------------------|
-----------------------------|-----------------------------|
-----------------------------|-----------------------------|
-----------------------------|-----------------------------|


   Q     Q     Q      Q        Q     Q     Q      Q     
---------------------------|--13----------16p----13----|
--16~----x-----------13----|--------13-----------------|
--------------15b----------|---------------------------|
---------------------------|---------------------------|
---------------------------|---------------------------|
---------------------------|---------------------------|


   Q      Q     Q      Q         Q     Q       Q      Q     
---------------13h----16\----|--18----18b~----18~----18----|
--16p----13------------------|-----------------------------|
-----------------------------|-----------------------------|
-----------------------------|-----------------------------|
-----------------------------|-----------------------------|
-----------------------------|-----------------------------|


   Q      Q     Q    Q        Q     Q     Q     Q      
--16~----16~----x----x----|--16----18----20----20b----|
--------------------------|---------------------------|
--------------------------|---------------------------|
--------------------------|---------------------------|
--------------------------|---------------------------|
--------------------------|---------------------------|


   Q       Q      Q     Q         Q      Q      Q     Q      
--20br----20p----18----20~----|-----------------------------|
------------------------------|--16b----16b----16~----------|
------------------------------|-----------------------5h----|
------------------------------|-----------------------------|
------------------------------|-----------------------------|
------------------------------|-----------------------------|


  Q    Q     Q    Q       Q     Q    Q    Q        Q     Q      Q     Q     
-----------------------|-----------------------|--------20b----18----20----|
-----------------------|-----------------------|--16-----------------------|
--6----8----10----5----|--3\----5----x----x----|---------------------------|
-----------------------|-----------------------|---------------------------|
-----------------------|-----------------------|---------------------------|
-----------------------|-----------------------|---------------------------|


   Q     Q      Q     Q        Q      Q     Q     Q     
--16----18\----20----------|--20b----18----20----16----|
---------------------16----|---------------------------|
---------------------------|---------------------------|
---------------------------|---------------------------|
---------------------------|---------------------------|
---------------------------|---------------------------|


   Q     Q     Q     Q         Q     Q     Q     Q     
--18----------------20b----|--18----20----16----18----|
--------18----16-----------|--------------------------|
---------------------------|--------------------------|
---------------------------|--------------------------|
---------------------------|--------------------------|
---------------------------|--------------------------|


   Q     Q     Q     Q         Q     Q      Q      Q     
--13----16-----------------|----------------------------|
--------------16----16\----|--18----13/----11\----13----|
---------------------------|----------------------------|
---------------------------|----------------------------|
---------------------------|----------------------------|
---------------------------|----------------------------|


   Q     Q     Q     Q        Q     Q      Q     Q     
--16----18----20----20----|--18----18~----18b----x----|
--------------------------|---------------------------|
--------------------------|---------------------------|
--------------------------|---------------------------|
--------------------------|---------------------------|
--------------------------|---------------------------|


   Q     Q     Q     Q        Q     Q     Q     Q      
--18----16----16~----x----|--16----18----20----20b----|
--------------------------|---------------------------|
--------------------------|---------------------------|
--------------------------|---------------------------|
--------------------------|---------------------------|
--------------------------|---------------------------|


  Improvisie using the Key F                  
  Q                          Q    Q    Q      
--x--------------------------x----x----x----||
--------------------------------------------||
--------------------------------------------||
--------------------------------------------||
--------------------------------------------||
--------------------------------------------||            
Submit corrections

↑ Back to top | Tablatures and chords for acoustic guitar and electric guitar, ukulele, drums are parodies/interpretations of the original songs. You may use it for private study, scholarship, research or language learning purposes only