» » »

Eli Young Band - Oklahoma Girl Bass

Artists:  A B C D E F G H I J K L M N O P Q R S T U V W X Y Z # 

Oklahoma Girl Bass

(ver. 1) Click to play this song!
Eli Young Band
 Rating:
4/5 (4 votes)
                eli young band
oklahoma girl

standard tuning (EADG)

verse

g---------------------------------|
d--2-2--------0-0-2-2---------0-0-|
a------3-3------------3-3---------|
e----------3-3------------3-3-----|


pre-chorus

g------------------------------|
d--2-2---------0-0-----0-0-2-2-|
a------3-3---------0-0---------|
e----------3-3-----------------|


chorus

g-----------------------------------------|
d--2-2--------0-0-2-2---------0-0-----2-2-|
a------3-3------------3-3---------0-0-----|
e----------3-3------------3-3-------------|


verse2

g---------------------------------|
d--2-2--------0-0-2-2---------0-0-|
a------3-3------------3-3---------|
e----------3-3------------3-3-----|


pre-chorus

g------------------------------|
d--2-2---------0-0-----0-0-2-2-|
a------3-3---------0-0---------|
e----------3-3-----------------|


chorus

g-----------------------------------------|
d--2-2--------0-0-2-2---------0-0-----2-2-|
a------3-3------------3-3---------0-0-----|
e----------3-3------------3-3-------------|


solo

g---------------------------------|
d--2-2--------0-0-2-2---------0-0-|
a------3-3------------3-3---------|
e----------3-3------------3-3-----|


verse3

g---------------------------------|
d--2-2--------0-0-2-2---------0-0-|
a------3-3------------3-3---------|
e----------3-3------------3-3-----|


pre-chorus

g------------------------------|
d--2-2---------0-0-----0-0-2-2-|
a------3-3---------0-0---------|
e----------3-3-----------------|


chorus

g-----------------------------------------|
d--2-2--------0-0-2-2---------0-0-----2-2-|
a------3-3------------3-3---------0-0-----|
e----------3-3------------3-3-------------|


outro

g---------------------------------|
d--2-2--------0-0-2-2---------0-0-|
a------3-3------------3-3---------|
e----------3-3------------3-3-----|
            
Submit corrections

↑ Back to top | Tablatures and chords for acoustic guitar and electric guitar, ukulele, drums are parodies/interpretations of the original songs. You may use it for private study, scholarship, research or language learning purposes only