» » »

Eli Young Band - Highways And Broken Hearts Bass

Artists:  A B C D E F G H I J K L M N O P Q R S T U V W X Y Z # 

Highways And Broken Hearts Bass

(ver. 1) Click to play this song!
Eli Young Band
 Rating:
4/5 (4 votes)
                Eli Young Band
standard tuning (EADG)


Verse

g-----------------------------------------|
d----------2---0-----------2---0----------|
a------3---------------3----------3---3---|
e--3---------------3----------------------|


Chorus

g-----------------------------------|
d------0----2--------------0----2---|
a----------------3----------------3-|
e-3-------------------3-------------|

Verse

g-----------------------------------------|
d----------2---0-----------2---0----------|
a------3---------------3----------3---3---|
e--3---------------3----------------------|


Chorus

g-----------------------------------|
d------0----2--------------0----2---|
a----------------3----------------3-|
e-3-------------------3-------------|


Verse

g-----------------------------------------|
d----------2---0-----------2---0----------|
a------3---------------3----------3---3---|
e--3---------------3----------------------|


Chorus

g-----------------------------------|
d------0----2--------------0----2---|
a----------------3----------------3-|
e-3-------------------3-------------|

Last Chorus

    "you're so far away"
g--------------------|
d-----------2---0----|
a------------------3-|   x2
e--------------------|


Outro

g-----------------------------------|
d------0----2--------------0----2---|
a----------------3----------------3-|  x4
e-3-------------------3-------------|
            
Submit corrections

↑ Back to top | Tablatures and chords for acoustic guitar and electric guitar, ukulele, drums are parodies/interpretations of the original songs. You may use it for private study, scholarship, research or language learning purposes only