Home » E » Elisa »

Elisa - Ebullient Future Tabs

Artists:  A B C D E F G H I J K L M N O P Q R S T U V W X Y Z # 

Ebullient Future Tabs

(ver. 1) Click to play this song!
Elisa
 Rating:
4/5 (4 votes)
                Tuning: Standard

-So basically I got tired of this tab not existing on the internet. So This is the 
as you want,
and most importantly enjoy the song.

[-9-9-8------------9-9-11-9-11-13-13-8-9-9-8-----------6-9-11-9-8-9-8-6-6]
[-------11-11-9-9----------------------------11-11-9-9-------------------]
[------------------------------------------------------------------------]
[------------------------------------------------------------------------]
[------------------------------------------------------------------------]
[------------------------------------------------------------------------]

--The 4 on the second string isn't correct, but it fits. If you find the right one kudos 
you--

[-6-6-8-9-8-4-4-1-4-6-6-8-6-4-1-1-2-2-4-6-8-9-8-6-6-9-8-4-4-1-4-6-8-9-11]
[------------------------------4----------------------------------------]
[-----------------------------------------------------------------------]
[-----------------------------------------------------------------------]
[-----------------------------------------------------------------------]
[-----------------------------------------------------------------------]

[-9-9-8------------9-9-11-9-11-13-13-8-9-9-8-----------6-9-11-9-8-9-8-6-6]
[-------11-11-9-9----------------------------11-11-9-9-------------------]
[------------------------------------------------------------------------]
[------------------------------------------------------------------------]
[------------------------------------------------------------------------]
[------------------------------------------------------------------------]


[8-9-9-8------------9-9-11-9-11-13-13-8-9-9-8-----------6-9-11-9-8-9-8-6-6]
[-------11-11-9-9----------------------------11-11-9-9--------------------]
[-------------------------------------------------------------------------]
[-------------------------------------------------------------------------]
[-------------------------------------------------------------------------]
[-------------------------------------------------------------------------]

                                                        ^
                                                        |
                                                   Hold Briefly
            
Submit corrections

↑ Back to top | Tablatures and chords for acoustic guitar and electric guitar, ukulele, drums are parodies/interpretations of the original songs. You may use it for private study, scholarship, research or language learning purposes only