» » »

Elevation Worship - Overcome Tabs

Artists:  A B C D E F G H I J K L M N O P Q R S T U V W X Y Z # 

Overcome Tabs

(ver. 1) Click to play this song!
Elevation Worship
 Rating:
4.4/5 (7 votes)

 Overcome lessons Tabs too difficult? Try these video lessons and learn fast
 
                [Chorus]
   S S S S    H  .Q S S    H  .Q  S S   H  .Q  S S    H  .Q S S 
e|-x-x-x-x-|--------x-x-|---------x-x-|--------x-x-|--------x-x-|
B|-x-x-x-x-|--3---3-x-x-|--2---2--x-x-|--------x-x-|--3---3-x-x-|
G|-x-x-x-x-|--2---2-x-x-|--2---2--x-x-|-9---9--x-x-|--2---2-x-x-|
D|-x-x-x-x-|--0---0-x-x-|--2---2--x-x-|-9---9--x-x-|--0---0-x-x-|
A|---------|--0---0-x-x-|--0---0--x-x-|-7---7--x-x-|--0---0-x-x-|
E|---------|------------|---------x-x-|-0---0--x-x-|------------|

    H  .Q S S    H  .Q  S S   H  E  S S  Q    H  .Q  S S 
e|--------x-x-|---------x-x-|--------------|---------x-x-|
B|--3---3-x-x-|--2---2--x-x-|--------------|--3---3--x-x-|
G|--2---2-x-x-|--2---2--x-x-|-9--9-11------|--2---2--x-x-|     X2
D|--0---0-x-x-|--2---2--x-x-|-9-------9--L-|--0---0--x-x-|
A|--0---0-x-x-|--0---0--x-x-|-7------------|--0---0--x-x-|
E|------------|---------x-x-|-0------------|-------------|
 


[Verse 2 Part 1.]
P.M.-------------------------------------------------]     
    S  S  S  S   S  S  S  S  S  S  S  S  S  S  S  S  
e|--------------------------------------------------|
B|--10-10-10-10-10-10-10-10-12-12-12-12-14-14-14-14-|
G|--------------------------------------------------|    
D|---7--7--7--7--7--7--7--7--9--9--9--9-11-11-11-11-|
A|--------------------------------------------------|
E|--------------------------------------------------|

P.M.-------------------------------------------------]     
     S  S  S  S   S  S  S  S  S  S  S  S  S  S  S  S  
e|--------------------------------------------------|
B|---7--7--7--7--7--7--7--7-12-12-12-12-14-14-14-14-|
G|--------------------------------------------------|    
D|---4--4--4--4--4--4--4--4--9--9--9--9-11-11-11-11-|
A|--------------------------------------------------|
E|--------------------------------------------------|


[Verse 2 Part 2.]

e|----0-------------5--------4---------0-------------|
B|--------0------------0---------0-------------------|
G|-------------6----------6---------6----------------|
D|--7---7---7-----7----------------------------------|
A|---------------------------------------------------|
E|---------------------------------------------------|


 [Bridge]
    Q   Q   Q   Q      W       Q  Q  Q  Q      W   
e|-----------------|--------|--------------|------------|
B|-----------------|--------|--------------|------------|
G|--2---4---6---7--|---9----|--6--------9--|------------|    X2  
D|-----------------|--------|-----7--9-----|---7--------| 
A|-----------------|--------|--------------|------------|
E|-----------------|--------|--------------|------------|

    Q   Q   Q   Q     .H   E   E     Q  Q  Q  Q      W   
e|-----------------|--------------|--------------|------------|
B|-----------------|--------------|--------------|------------|
G|--2---4---6---7--|---9---7---4--|--6--2--4--9--|------------|    X2  
D|-----------------|--------------|--------------|--7---------| 
A|--0---2---4---5--|---7---5---6--|--4--0--2--7--|------------|
E|-----------------|--------------|--------------|--5---------|

[Outro]
    H  .Q S S    H  .Q  S S   H  E  S S  Q    H  .Q  S S 
e|--------x-x-|---------x-x-|--------------|---------x-x-|
B|--3---3-x-x-|--2---2--x-x-|--------------|--3---3--x-x-|
G|--2---2-x-x-|--2---2--x-x-|-9--9-11------|--2---2--x-x-|     X2
D|--0---0-x-x-|--2---2--x-x-|-9-------9--L-|--0---0--x-x-|
A|--0---0-x-x-|--0---0--x-x-|-7------------|--0---0--x-x-|
E|------------|---------x-x-|-0------------|-------------|

            
Submit corrections


        Overcome lessons Hard to play? Try these video lessons and learn fast Overcome lessons
        
↑ Back to top | Tablatures and chords for acoustic guitar and electric guitar, ukulele, drums are parodies/interpretations of the original songs. You may use it for private study, scholarship, research or language learning purposes only