Home » E » Elevation Worship »

Elevation Worship - Gone Tabs

Artists:  A B C D E F G H I J K L M N O P Q R S T U V W X Y Z # 

Gone Tabs

(ver. 1) Click to play this song!
Elevation Worship
 Rating:
4.2/5 (30 votes)
                [Intro]
 
e|--x-x-----|--x-x-----|--x-x-----|--x-x-----|
B|--x-x-----|--x-x-----|--x-x-----|--x-x-----|
G|--x-x-----|--x-x-----|--x-x-----|--x-x-----|
D|--x-x-----|--x-x-----|--x-x-----|--x-x-----|
A|--x-x-----|--x-x-----|--x-x-----|--x-x-----|
E|--x-x-----|--x-x-----|--x-x-----|--x-x-----|
 
e|------------------------------------9-------------|
B|-12p10-10-10--12p10-10-10--12p10-10---12p10-10-10-|
G|--------------------------------------------------|
D|--------------------------------------------------|
A|--------------------------------------------------|
E|--------------------------------------------------|
 
e|------------------------------------9-------------|
B|-12p10-10-10--12p10-10-10--12p10-10---12p10-10-10-|
G|--------------------------------------------------|
D|--------------------------------------------------|
A|--------------------------------------------------|
E|--------------------------------------------------|
 
e|------------------------------------9-------------|
B|-12p10-10-10--12p10-10-10--12p10-10---12p10-10-10-|
G|--------------------------------------------------|
D|--------------------------------------------------|
A|--------------------------------------------------|
E|--------------------------------------------------|
 
e|------------------------------------9-------------|
B|-12p10-10-10--12p10-10-10--12p10-10---12p10-10-10-|
G|--------------------------------------------------|
D|--------------------------------------------------|
A|--------------------------------------------------|
E|--------------------------------------------------|
 
[Verse 1]
 
e|---------------------------------------|
B|-12p10-10-10--12p10-10-10--12p10-10-10-|
G|---------------------------------------|
D|---------------------------------------|
A|---------------------------------------|
E|---------------------------------------|
 
e|------------------------------------9-------------|
B|-12p10-10-10--12p10-10-10--12p10-10---12p10-10-10-|
G|--------------------------------------------------|
D|--------------------------------------------------|
A|--------------------------------------------------|
E|--------------------------------------------------|
 
e|---------------------------------------|
B|-12p10-10-10--12p10-10-10--12p10-10-10-|
G|---------------------------------------|
D|---------------------------------------|
A|---------------------------------------|
E|---------------------------------------|
 
e|------------------------------------9-------------|
B|-12p10-10-10--12p10-10-10--12p10-10---12p10-10-10-|
G|--------------------------------------------------|
D|--------------------------------------------------|
A|--------------------------------------------------|
E|--------------------------------------------------|
 
e|---------------------------------------|
B|-12p10-10-10--12p10-10-10--12p10-10-10-|
G|---------------------------------------|
D|---------------------------------------|
A|---------------------------------------|
E|---------------------------------------|
 
e|------------------------------------9-------------|
B|-12p10-10-10--12p10-10-10--12p10-10---12p10-10-10-|
G|--------------------------------------------------|
D|--------------------------------------------------|
A|--------------------------------------------------|
E|--------------------------------------------------|
 
e|--------------------------------------|
B|-12p10-10-10--------------------------|
G|--------------------------------------|
D|--------------------------------------|
A|--------------------------------------|
E|--------------------------------------|
 
[Chorus 1]
 
e|--------------9--|-----------------|
B|------10--12-----|-10--------------|
G|--11-------------|-----------------|
D|-----------------|-----------------|
A|-----------------|-----------------|
E|-----------------|-----------------|
 
e|--------------9--|-(9)-------------|
B|------10--12-----|-----------------|
G|--11-------------|-----------------|
D|-----------------|-----------------|
A|-----------------|-----------------|
E|-----------------|-----------------|
 
e|--------------9--|-----------------|
B|------10--12-----|-10--------------|
G|--11-------------|-----------------|
D|-----------------|-----------------|
A|-----------------|-----------------|
E|-----------------|-----------------|
 
e|--------------9--|-----------------|
B|------10--12-----|-----------------|
G|--11-------------|-2---------------|
D|-----------------|-2---------------|
A|-----------------|-0---------------|
E|-----------------|-----------------|
 
e|-----------------|
B|-----------------|
G|-(2)-------------|
D|-(2)-------------|
A|-(0)-------------|
E|-----------------|
 
[Verse 2]
 
e|---------------------------------------|
B|-12p10-10-10--12p10-10-10--12p10-10-10-|
G|---------------------------------------|
D|---------------------------------------|
A|---------------------------------------|
E|---------------------------------------|
 
e|------------------------------------9-------------|
B|-12p10-10-10--12p10-10-10--12p10-10---12p10-10-10-|
G|--------------------------------------------------|
D|--------------------------------------------------|
A|--------------------------------------------------|
E|--------------------------------------------------|
 
e|---------------------------------------|
B|-12p10-10-10--12p10-10-10--12p10-10-10-|
G|---------------------------------------|
D|---------------------------------------|
A|---------------------------------------|
E|---------------------------------------|
 
e|------------------------------------9-------------|
B|-12p10-10-10--12p10-10-10--12p10-10---12p10-10-10-|
G|--------------------------------------------------|
D|--------------------------------------------------|
A|--------------------------------------------------|
E|--------------------------------------------------|
 
 
e|--17--16--14--|-9------------|-(9)----------|
B|--x---x---x---|-x------------|-(x)----------|
G|--18--16--14--|-9------------|-(9)----------|
D|--------------|--------------|--------------|
A|--------------|--------------|--------------|
E|--------------|--------------|--------------|
 
[Chorus 2]
 
e|--------------9--|-----------------|
B|------10--12-----|-10--------------|
G|--11-------------|-----------------|
D|-----------------|-----------------|
A|-----------------|-----------------|
E|-----------------|-----------------|
 
e|--------------9--|-(9)-------------|
B|------10--12-----|-----------------|
G|--11-------------|-----------------|
D|-----------------|-----------------|
A|-----------------|-----------------|
E|-----------------|-----------------|
 
e|--------------9--|-----------------|
B|------10--12-----|-10--------------|
G|--11-------------|-----------------|
D|-----------------|-----------------|
A|-----------------|-----------------|
E|-----------------|-----------------|
 
e|--------------9--|-----------------|
B|------10--12-----|-----------------|
G|--11-------------|-2---------------|
D|-----------------|-2---------------|
A|-----------------|-0---------------|
E|-----------------|-----------------|
 
e|-----------------|
B|-----------------|
G|-2-2-2-2-2-2-2-2-|
D|-2-2-2-2-2-2-2-2-|
A|-0-0-0-0-0-0-0-0-|
E|-----------------|
 
[Bridge]
 
e|-----------------|
B|-----------------|
G|-2---------------|
D|-2---------------|
A|-0---------------|
E|-----------------|
 
Rest 3 Measures
 
e|-----------------|-----------------|
B|---------7-------|-----------------|
G|-6-------x-------|-6---------------|
D|-7-------7-------|-7---------------|
A|-4-------5-------|-7---------------|
E|-----------------|-5---------------|
 
e|-2---------------|-----------------|
B|-2-------7-------|-----------------|
G|-2-------x-------|-6---------------|
D|-4-------7-------|-7---------------|
A|-4-------5-------|-7---------------|
E|-2---------------|-5---------------|
 
e|----12-----------|----14-----------|
B|-----------------|-----------------|
G|-14----13--------|-14----11--------|
D|-----------------|-----------------|
A|-----------------|-----------------|
E|-----------------|-----------------|
 
e|-----------------|-----------------|
B|-----------------|-----------------|
G|-14------13------|-14--------------|
D|-----------------|-----------------|
A|-----------------|-----------------|
E|-----------------|-----------------|
 
e|----12-----------|----14-----------|
B|-----------------|-----------------|
G|-14----13--------|-14----11--------|
D|-----------------|-----------------|
A|-----------------|-----------------|
E|-----------------|-----------------|
 
e|-----------------|-----------------|
B|-----------------|-----------------|
G|-14------13------|-14--------------|
D|-----------------|-----------------|
A|-----------------|-----------------|
E|-----------------|-----------------|
 
e|-----------------|-----------------|
B|-----------------|-----------------|
G|-14------13------|-14--------------|
D|-----------------|-----------------|
A|-----------------|-----------------|
E|-----------------|-----------------|
 
[Chorus 3]
 
Rest 4 Measures
 
e|--------------9--|-----------------|
B|------10--12-----|-10--------------|
G|--11-------------|-----------------|
D|-----------------|-----------------|
A|-----------------|-----------------|
E|-----------------|-----------------|
 
e|--------------9--|-(9)-------------|
B|------10--12-----|-----------------|
G|--11-------------|-----------------|
D|-----------------|-----------------|
A|-----------------|-----------------|
E|-----------------|-----------------|
 
e|--------------9--|-----------------|
B|------10--12-----|-10--------------|
G|--11-------------|-----------------|
D|-----------------|-----------------|
A|-----------------|-----------------|
E|-----------------|-----------------|
 
e|--------------9--|-(9)-------------|
B|------10--12-----|-----------------|
G|--11-------------|-----------------|
D|-----------------|-----------------|
A|-----------------|-----------------|
E|-----------------|-----------------|
 
e|--------------9--|-----------------|
B|------10--12-----|-10--------------|
G|--11-------------|-----------------|
D|-----------------|-----------------|
A|-----------------|-----------------|
E|-----------------|-----------------|
 
e|--------------9--|
B|------10--12-----|
G|--11-------------|
D|-----------------|
A|-----------------|
E|-----------------|
 
[Outro]
 
e|------------------------------------9-------------|
B|-12p10-10-10--12p10-10-10--12p10-10---12p10-10-10-|
G|--------------------------------------------------|
D|--------------------------------------------------|
A|--------------------------------------------------|
E|--------------------------------------------------|
 
e|------------------------------------9-------------|
B|-12p10-10-10--12p10-10-10--12p10-10---12p10-10-10-|
G|--------------------------------------------------|
D|--------------------------------------------------|
A|--------------------------------------------------|
E|--------------------------------------------------|
 
e|------------------------------------9-------------|
B|-12p10-10-10--12p10-10-10--12p10-10---12p10-10-10-|
G|--------------------------------------------------|
D|--------------------------------------------------|
A|--------------------------------------------------|
E|--------------------------------------------------|
 
e|------------------------------------9-------------|
B|-12p10-10-10--12p10-10-10--12p10-10---12p10-10-10-|
G|--------------------------------------------------|
D|--------------------------------------------------|
A|--------------------------------------------------|
E|--------------------------------------------------|
 
e|------------------------------------9-------------|
B|-12p10-10-10--12p10-10-10--12p10-10---12p10-10-10-|
G|--------------------------------------------------|
D|--------------------------------------------------|
A|--------------------------------------------------|
E|--------------------------------------------------|
 
e|------------------------------------9-------------|
B|-12p10-10-10--12p10-10-10--12p10-10---12p10-10-10-|
G|--------------------------------------------------|
D|--------------------------------------------------|
A|--------------------------------------------------|
E|--------------------------------------------------|
 
e|------------------------------------9-------------|
B|-12p10-10-10--12p10-10-10--12p10-10---12p10-10-10-|
G|--------------------------------------------------|
D|--------------------------------------------------|
A|--------------------------------------------------|
E|--------------------------------------------------|
 
e|--------------------------------------------------|
B|-12p10-10-10--12p10-10-10-------------------------|
G|--------------------------------------------------|
D|--------------------------------------------------|
A|--------------------------------------------------|
E|--------------------------------------------------|
            
Submit corrections

↑ Back to top | Tablatures and chords for acoustic guitar and electric guitar, ukulele, drums are parodies/interpretations of the original songs. You may use it for private study, scholarship, research or language learning purposes only