» » »

Elevation Worship - God Of The Promise Tabs

Artists:  A B C D E F G H I J K L M N O P Q R S T U V W X Y Z # 

God Of The Promise Tabs

(ver. 1) Click to play this song!
Elevation Worship
 Rating:
4.3/5 (26 votes)

 God Of The Promise lessons Tabs too difficult? Try these video lessons and learn fast
 
                [Intro]

e|--9/11--9------------|----9/11---9-------|
B|----------12--9------|---------------12--|
G|-----------------11--|-------------------| x2
D|---------------------|-------------------|
A|---------------------|-------------------|
E|---------------------|-------------------|

[Verse 1]

e|-----------------------------------------|
B|-----------------------------------------|
G|-----------------------------------------|
D|-----------------------------------------|
A|-----------------------------------------|
E|-11-11-11-11-11-11-11-11-4-4-4-4-4-4-4-4-|

e|-----------------------------------------|
B|-----------------------------------------|
G|-----------------------------------------|
D|-----------------------------------------|
A|-----------------------------------------|
E|-0-0-0-0-0-0-0-0-0-0-0-0-0-0-0-0---------|

e|-----------------------------------------|
B|-----------------------------------------|
G|-----------------------------------------|
D|-----------------------------------------|
A|-----------------------------------------|
E|-11-11-11-11-11-11-11-11-0-0-0-0-0-0-0-0-|

e|-----------------------------------------|
B|-----------------------------------------|
G|-----------------------------------------|
D|-----------------------------------------|
A|-----------------------------------------|
E|-7-7-7-7-7-7-7-7-7-7-7-7-7-7-7-7---------|

e|-----------------------------------------|
B|-----------------------------------------|
G|-----------------------------------------|
D|-----------------------------------------|
A|-----------------------------------------|
E|-11-11-11-11-11-11-11-11-4-4-4-4-4-4-4-4-|

e|-----------------------------------------|
B|-----------------------------------------|
G|-----------------------------------------|
D|-----------------------------------------|
A|-----------------------------------------|
E|-0-0-0-0-0-0-0-0-0-0-0-0-0-0-0-0---------|

e|-----------------------------------------|
B|-----------------------------------------|
G|-----------------------------------------|
D|-----------------------------------------|
A|-----------------------------------------|
E|-11-11-11-11-11-11-11-11-0-0-0-0-0-0-0-0-|

e|-------------------------x-x-x-x---------|
B|-------------------------x-x-x-x---------|
G|-------------------------x-x-x-x---------|
D|-------------------------x-x-x-x---------|
A|-------------------------x-x-x-x---------|
E|-7-7-7-7-7-7-7-7-7-7-7-7-x-x-x-x---------|

[Chorus]

e|---------|---------|---------|---------|
B|-4-------|-5-4---4-|-5---7---|-4---7---|
G|-4-------|-4-4---4-|-4---6---|-4---6---|
D|---------|-------x-|---------|---------|
A|---------|-------6-|---------|---------|
E|---------|---------|---------|---------|

e|---------|---------|---------|---------|
B|-4-------|-5-4---4-|-5---7---|-4---7---|
G|-4-------|-4-4---4-|-4---6---|-4---6---|
D|---------|-------x-|---------|---------|
A|---------|-------6-|---------|---------|
E|---------|---------|---------|---------|

[Turn]

e|--9/11--9------------|----9/11---9-------|
B|----------12--9------|---------------12--|
G|-----------------11--|-------------------|
D|---------------------|-------------------|
A|---------------------|-------------------|
E|---------------------|-------------------|


[Verse 2]

e|-----------------------------------------|
B|-----------------------------------------|
G|-----------------------------------------|
D|-----------------------------------------|
A|-----------------------------------------|
E|-11-11-11-11-11-11-11-11-4-4-4-4-4-4-4-4-|

e|-----------------------------------------|
B|-----------------------------------------|
G|-----------------------------------------|
D|-----------------------------------------|
A|-----------------------------------------|
E|-0-0-0-0-0-0-0-0-0-0-0-0-0-0-0-0---------|

e|-----------------------------------------|
B|-----------------------------------------|
G|-----------------------------------------|
D|-----------------------------------------|
A|-----------------------------------------|
E|-11-11-11-11-11-11-11-11-0-0-0-0-0-0-0-0-|

e|-----------------------------------------|
B|-----------------------------------------|
G|-----------------------------------------|
D|-----------------------------------------|
A|-----------------------------------------|
E|-7-7-7-7-7-7-7-7-7-7-7-7-7-7-7-7---------|

e|-----------------------------------------|
B|-----------------------------------------|
G|-----------------------------------------|
D|-----------------------------------------|
A|-----------------------------------------|
E|-11-11-11-11-11-11-11-11-4-4-4-4-4-4-4-4-|

e|-----------------------------------------|
B|-----------------------------------------|
G|-----------------------------------------|
D|-----------------------------------------|
A|-----------------------------------------|
E|-0-0-0-0-0-0-0-0-0-0-0-0-0-0-0-0---------|

e|-----------------------------------------|
B|-----------------------------------------|
G|-----------------------------------------|
D|-----------------------------------------|
A|-----------------------------------------|
E|-11-11-11-11-11-11-11-11-0-0-0-0-0-0-0-0-|

e|-------------------------x-x-x-x---------|
B|-------------------------x-x-x-x---------|
G|-------------------------x-x-x-x---------|
D|-------------------------x-x-x-x---------|
A|-------------------------x-x-x-x---------|
E|-7-7-7-7-7-7-7-7-7-7-7-7-x-x-x-x---------|

[Chorus]

e|---------|---------|---------|---------|
B|-4-------|-5-4---4-|-5---7---|-4---7---|
G|-4-------|-4-4---4-|-4---6---|-4---6---|
D|---------|-------x-|---------|---------|
A|---------|-------6-|---------|---------|
E|---------|---------|---------|---------|

e|---------|---------|---------|---------|
B|-4-------|-5-4---4-|-5---7---|-4---7---|
G|-4-------|-4-4---4-|-4---6---|-4---6---|
D|---------|-------x-|---------|---------|
A|---------|-------6-|---------|---------|
E|---------|---------|---------|---------|

[Bridge]

e|---------------------------------|
B|---------------------------------|
G|---------4-4-6-6---------4-4-6-6-| _
D|-6-6-6-6---------4-4-4-4---------|  |
A|---------------------------------|  |
E|---------------------------------|  |
                                      |
e|---------------------------------|  | x10
B|-------------------------4-4-----|  |
G|---------4-4-6-6-------------6-6-|  |
D|---------------------------------| _|
A|-7-7-7-7-------------------------|
E|-----------------7-7-7-7---------|

[Turn]

e|--9/11--9------------|----9/11---9-------|
B|----------12--9------|---------------12--|
G|-----------------11--|-------------------|
D|---------------------|-------------------|
A|---------------------|-------------------|
E|---------------------|-------------------|

[Chorus]

e|---------|---------|---------|---------|
B|-4-------|-5-4---4-|-5---7---|-4---7---|
G|-4-------|-4-4---4-|-4---6---|-4---6---|
D|---------|-------x-|---------|---------|
A|---------|-------6-|---------|---------|
E|---------|---------|---------|---------|

e|---------|---------|---------|---------|
B|-4-------|-5-4---4-|-5---7---|-4---7---|
G|-4-------|-4-4---4-|-4---6---|-4---6---|
D|---------|-------x-|---------|---------|
A|---------|-------6-|---------|---------|
E|---------|---------|---------|---------|

[Outro]

e|--9/11--9------------|----9/11---9-------|
B|----------12--9------|---------------12--|
G|-----------------11--|-------------------| x2
D|---------------------|-------------------|
A|---------------------|-------------------|
E|---------------------|-------------------|

            
Submit corrections


        God Of The Promise lessons Hard to play? Try these video lessons and learn fast God Of The Promise lessons
        
↑ Back to top | Tablatures and chords for acoustic guitar and electric guitar, ukulele, drums are parodies/interpretations of the original songs. You may use it for private study, scholarship, research or language learning purposes only