Home » E » Elevation Worship »

Elevation Worship - Authority Tabs

Artists:  A B C D E F G H I J K L M N O P Q R S T U V W X Y Z # 

Authority Tabs

(ver. 1) Click to play this song!
Elevation Worship
[Guitar 1]
[Chorus 1] Delay 1, Reverb 1
e|----------------------------||--------------------------|
B|--(Crescendo)---------------||--------------------------|
G|----------------------------||o------------------------o| x8
D|----------------------------||o------------------------o|
A|--3--3--3--3--3--3--3--3----||--3--3--3--3--3--3--3--3--|
E|----------------------------||--------------------------|
 
[Verse 2] Delay 1&3, Reverb 1
e|------|---------------------------------------------|
B|------|--------------------------------13-----------|
G|o-----|-----------------------------12-------------o| x3
D|o-----|--------------------------14----------------o|
A|------|---------------------------------------------|
E|------|---------------------------------------------|
 
[Chorus 2] Delay 1, Reverb 1
e|-------------------8-----------------------8-----|--------------------8-----------------------8----|
B|-------8--------------8--------8--------------8--|--------8--------------8--------8--------------8-|
G|o---9-----9-----9-----------9-----9-----9--------|-----10----10----10----------10----10----10-----o| x8
D|o10----------10----------10----------10----------|--10----------10----------10----------10--------o|
A|-------------------------------------------------|-------------------------------------------------|
E|-------------------------------------------------|-------------------------------------------------|
 
[Bridge 2] Delay 1, Reverb 2 w/ 75% mix, tone knob rolled off
   =       =       =     =       =
e|------|-------|-------------|------|
B|-13---|--17---|--15----12---|--10--|
G|o-----|-------|-------------|-----o|
D|o-----|-------|-------------|-----o|
A|------|-------|-------------|------|
E|------|-------|-------------|------|
 
[Bridge 3] Delay 1, Reverb 2 w/ 75% mix
   =        =      =      =       =
e|------|-------|--------------|------|
B|-13---|--17---|--15-----12---|--10--|
G|o-----|-------|--------------|-----o|
D|o10---|--14---|--12-----9----|--7--o|
A|------|-------|--------------|------|
E|------|-------|--------------|------|
 
[Chorus 3, Bridge 4] Drive 2, Delay 1, Reverb 2 w/ 75% mix
  =         =       =       =        =       =
e|---------------|-------|----------------|------|
B|-13-------17---|--10---|--8--------12---|--10--|
G|o--------------|-------|----------------|-----o|
D|o10-------14---|--7----|--5--------9----|--7--o|
A|---------------|-------|----------------|------|
E|---------------|-------|----------------|------|
 
 
[Guitar 2]
 
[Chorus 2] Delay 1, Reverb 2, Drive 1
e|-------------|-------|-------------|------|
B|-------------|-------|-------------|------|
G|o------------|-------|-------------|-----o| x4
D|o-10-----14--|--7----|--5--------9-|--7--o|
A|-------------|-------|-------------|------|
E|-------------|-------|-------------|------|
 
[Bridge 1] Delay 1&2, Reverb 1
e|-------------|-------|-------------|------|
B|-------------|-------|-------------|------|
G|o------------|-------|-------------|-----o| x2
D|o-5------10--|--2----|--5------10--|--3--o|
A|-------------|-------|-------------|------|
E|-------------|-------|-------------|------|
 
[Bridge 2] Drive 1, Delay 1&2, Reverb 1
e|------------------------|-------------------------|------------------------|-------------------------|
B|------------------------|-------------------------|------------------------|-------------------------|
G|------------------------|-------------------------|------------------------|-------------------------| x2
D|-2--2--2--2--2--2--2--2-|-5--5--5--5--5--5--10-10-|-3--3--3--3--3--3--3--3-|-5--5--5--5--5--5--10-10-|
A|------------------------|-------------------------|------------------------|-------------------------|
E|------------------------|-------------------------|------------------------|-------------------------|
 
[Bridge 3] Drive 1, Delay 1, Reverb 2
e|---------------|----------------|----------------|----------------|
B|-13------------|-----------15---|--13------------|-----------15---|
G|o---12---------|----------------|-----12---------|----------------| x2
D|o------14-12---|--14----15------|--------14-12---|--14----15------|
A|---------------|----------------|----------------|----------------|
E|---------------|----------------|----------------|----------------|
 
[Chorus 3, Bridge 4] Drive 1, Delay 1, Reverb 2
e|---------------|----------------|----------------|----------------|
B|-13------------|--13------------|--13------------|--13----15-17---|
G|o---12---------|-----12---------|-----12---------|-----12---------| x2
D|o------15-14---|--------15-14---|--------15-14---|----------------|
A|---------------|----------------|----------------|----------------|
E|---------------|----------------|----------------|----------------|
            
Submit corrections

↑ Back to top | Tablatures and chords for acoustic guitar and electric guitar, ukulele, drums are parodies/interpretations of the original songs. You may use it for private study, scholarship, research or language learning purposes only