» » »

Elena Siegman - Beauty Of Annihilation Intro Tabs

Artists:  A B C D E F G H I J K L M N O P Q R S T U V W X Y Z # 

Beauty Of Annihilation Intro Tabs

(ver. 1) Click to play this song!
Elena Siegman
 Rating:
4/5 (4 votes)

 Beauty Of Annihilation Intro lessons Tabs too difficult? Try these video lessons and learn fast
 
                0:08-0:26
|-------------------------------------------------------------------------------------------|
|-------------------------------------------------------------------------------------------|
|-4-4-4-4------4-444-4-4----------------------------4-444-4-4------4-444-4-4----------------|
|-4-4-4-4-5----4-444—4-4------5---5---5---5---55----4-444-4-4-5----4-444-4-4-5-5-5-5-5-5----|
|-2-2-2-2-5----2-222-2-2------5---5---5---5---55----2-222-2-2-5----2-222-2-2-5-5-5-5-5-5----|
|---------5---------------5-5-5-5-5-5-5-5-5-5-55--------------5--------------5-5-5-5-5-5----|

0:27-0:35
|-----------------------------------------------------------------------|
|----4----4-----4--------------------4----4-----4-----------------------|
|----4----4-----4----5----5-----5----4----4-----4-----5---5---5---5---5-|
|-22-2-22-2-222-2----5----5-----5-22-2-22-2-222-2-----5---5---5---5---5-|
|-----------------55-5-55-5-555-5-----------------5-5-5-5-5-5-5-5-5-5-5-|

0:36-0:48
|---------------------------------------------------------------|
|---------------------------------------------------------------|
|----4----4-----4---------------------------------------------4-|
|----4----4-----4----5----5-----5----0----0-----0-4-4-4-4-4-4-4-|
|-22-2-22-2-222-2----5----5-----5----0----0-----0-4-4-4-4-4-4-2-|
|-----------------55-5-55-5-555-5-00-0-00-0-000-0-4-4-4-4-4-4---|

0:49-0:50
|---------------------|
|---------------------|
|-4444-5555-7777-9999-|
|-xxxx-xxxx-xxxx-xxxx-|
|-2222-3333-5555-7777-|
|---------------------|

0:51-1:07
|--------------------------------------------------------------------------|
|--------------------------------------------------------------------------|
|--------------------------------------------------------------------------|
|-----4-5-4-2-0--0-1/4-4-5-4-0-1/4-4-5-4-----------------1/4-4-5-4-4-4-5-4-|
|-2-5--------------------------------------2-4-5---4-4-5-------------------|
|------------------------------------------------5-------------------------|
            
Submit corrections


        Beauty Of Annihilation Intro lessons Hard to play? Try these video lessons and learn fast Beauty Of Annihilation Intro lessons
        
↑ Back to top | Tablatures and chords for acoustic guitar and electric guitar, ukulele, drums are parodies/interpretations of the original songs. You may use it for private study, scholarship, research or language learning purposes only