» » »

Electric Six - Whole Song - Gay Bar Tabs

Artists:  A B C D E F G H I J K L M N O P Q R S T U V W X Y Z # 

Whole Song - Gay Bar Tabs

(ver. 1) Click to play this song!
Electric Six
 Rating:
4.2/5 (5 votes)

 Whole Song - Gay Bar lessons Tabs too difficult? Try these video lessons and learn fast
 
                TUNING: STANDARD TUNING
TAB CODE: / = slide from the number in front to the number afterwards.
         (b) = bend the note before the (b) up to the note in front or the number of
               semitones above the bend symbol.

Ok I got so fed up of waiting for someone to tab the WHOLE song instead of the cr*ppy main
riff I've gone and done it myself.  Look what you made me do!  Anyways enjoy...

:: MAIN RIFF (again)

E|---------------------------|
B|---------------------------|
G|---------------------------|
D|-0-0-3-5-0-----------------|
A|-----------4-3-3-0-0-3-4-0-|
E|---------------------------|

The MAIN RIFF repeats once clean, then overdrive, then guitar two joins on the third go.
The MAIN RIFF then repeats indefintely throughout the song.

:: FIRST SOLO

             (0.5)
E|------------------------------------------|
B|-8-8--10-10(b)-10-8--8--10-10-10-10-10-10-|
G|-7-7--9--9(b)--9--7--7--9--9--9--9--9--9--| x3
D|------------------------------------------|
A|------------------------------------------|
E|------------------------------------------|

               *vibrato* <---------------Repeat x4--------------->
E|----------------------|-----------------------------------------|----|
B|-8--8-8-10-8/15-------|-15-15-15-15-15-15-13--------------------|-15-|
G|-7--7-7-9--7/14-------|-14-14-14-14-14-14-12--10/12-10/12-10/12-|-14-|
D|----------------------|-----------------------------------------|----|
A|----------------------|-----------------------------------------|----|
E|----------------------|-----------------------------------------|----|

:: MAIN RIFF then builds up again as at the start of the song.  Note that just as the vocals
start there is a GUITAR 2 RIFF.  Here it is!

:: GUITAR 2 RIFF

E|----------------------------------|
B|-7/8-8-8-8-8-8-8-8----------------|
G|-8/9-9-9-9-9-9-9-9-9-7---7-9-7----|
D|-----------------------9-------9/-|
A|----------------------------------|
E|----------------------------------|

:: END SOLO

  < x3 with different picking >|...GUITAR 2 fades in with this bend, repeat to end...
E|-----------------------------|-------10--------10--------10-|
B|-----------------------------|-10--------10--------10-------|
G|----------10-------10--------|-12b14-----12b14-----12b14----|
D|-10-10-12----12-12----10-----|------------------------------|
A|-----------------------------|------------------------------|
E|-----------------------------|------------------------------|

:: FINAL CHORD

E|-7/-|
B|-7/-|
G|-7/-|
D|----|
A|----|
E|----|

:: LYRICS

Girl!
I wanna take you to a Gay Bar
I wanna take you to a Gay Bar
I wanna take you to a Gay Bar, Gay Bar, Gay Bar

Let's start a war
Start a Nuclear War
At the Gay Bar, Gay Bar, Bay Bar
At the Gay Bar

Now tell me do ya
Do ya have any money?
I wanna spend all your money
I wanna take you to a Gay Bar, Gay Bar, Gay Bar

I've got something to put in you
I've got something to put in you
I've got something to put in you
At the Gay Bar, Gay Bar, Gay Bar

You're a superstar, at the Gay Bar
You're a superstar, at the Gay Bar
You're a superstar, at the Gay Bar
You're a superstar, at the Gay Bar
Superstar, Superstar

:: Pretty sure that's right.  If anyone else gets round to tabbing this and you think mine's
wrong feel free to correct me.  Otherwise enjoy the tab!
            
Submit corrections


        Whole Song - Gay Bar lessons Hard to play? Try these video lessons and learn fast Whole Song - Gay Bar lessons
        
↑ Back to top | Tablatures and chords for acoustic guitar and electric guitar, ukulele, drums are parodies/interpretations of the original songs. You may use it for private study, scholarship, research or language learning purposes only