» » »

Electric Six - Slices Of You Bass

Artists:  A B C D E F G H I J K L M N O P Q R S T U V W X Y Z # 

Slices Of You Bass

(ver. 2) Click to play this song!
Electric Six
 Rating:
4/5 (4 votes)


 Slices Of You lessons Tabs too difficult? Try these video lessons and learn fast
 
                -------------------------------------------------------------------------------
                        Slices Of You - Electric Six
-------------------------------------------------------------------------------

Tuning:Standard

Intro/Verse
G|------------------------------------------------|
D|-------------------------------1----------------| X5
A|--3----1------------1---------------------------|
E|------------2-2-4-1----2-2-4-1------------------|

G|--------------------------------------------------------------------------|
D|--------------------------------------------------------------------------|
A|--3----2-1----1-2-3--2--1----3----1------------1---------1----------------|
E|---------------------------------------2-2-4-1---2-2-4-1------------------|

Chorus
G|--------------------------------------------------------------------------|
D|--------------------------------------------------------------------------|
A|-----------------4-4-4-4--4--4----------------6-6-6-6--6--6---------------|
E|--1-1-1-1--1--1/---------------4-4-4-4--4--4/-----------------------------|

G|--------------------------------------------------------------------------|
D|--------------------------------------------------------------------------|
A|-----------------4-4-4-4--4--4----------------1-1-1-1--1--1---------------|
E|--1-1-1-1--1--1/---------------4-4-4-4--4--4\-----------------------------|

G|--------------------------------------------------------------------------|
D|--------------------------------------------------------------------------|
A|-----------------4-4-4-4--4--4----------------6-6-6-6--6--6---------------|
E|--1-1-1-1--1--1/---------------4-4-4-4--4--4/-----------------------------|

G|--------------------------------------------------------------------------|
D|--------------------------------------------------------------------------|
A|-----------------4-4-4-4--4--4----------------1-1-1-1--1--1---------------|
E|--1-1-1-1--1--1/---------------4-4-4-4--4--4\-----------------------------|

Verse 2
G|------------------------------------------------|
D|-------------------------------1----------------| X3
A|--3----1------------1---------------------------|
E|------------2-2-4-1----2-2-4-1------------------|

G|--------------------------------------------------------------------------|
D|--------------------------------------------------------------------------|
A|--3----2-1----1-2-3--2--1----3----1------------1---------1----------------|
E|---------------------------------------2-2-4-1---2-2-4-1------------------|

Chorus X1

Bridge/Solo
G|--------------------------------------------------------------------------|
D|--------------------------------------------------------------------------|
A|--3----1------------------3--3-3-6--8--10\---------------3--3-3-6--8--10\-|
E|------------1--1-1-4--4-4------------------1--1-1-4--4-4------------------|

G|-------------------------------|
D|---------------------1---------| X4
A|----------1--------------------|
E|--2-2-4-1----2-2-4-1-----------|

Chorus X1

Outro
G|------------------------------------------------|
D|-------------------------------1----------------| X6
A|--3----1------------1---------------------------|
E|------------2-2-4-1----2-2-4-1------------------|



| /  slide up
| \  slide down
| h  hammer-on
| p  pull-off
| ~  vibrato
| +  harmonic
| x  Mute note
===============================================================================
            
Submit corrections



        Slices Of You lessons Hard to play? Try these video lessons and learn fast Slices Of You lessons
        
↑ Back to top | Tablatures and chords for acoustic guitar and electric guitar, ukulele, drums are parodies/interpretations of the original songs. You may use it for private study, scholarship, research or language learning purposes only