» » »

Electric Six - She's White Bass

Artists:  A B C D E F G H I J K L M N O P Q R S T U V W X Y Z # 

She's White Bass

(ver. 2) Click to play this song!
Electric Six
 Rating:
4/5 (4 votes)


 She's White lessons Tabs too difficult? Try these video lessons and learn fast
 
                -------------------------------------------------------------------------------
                             She's White - Electric Six
-------------------------------------------------------------------------------
Album:Fire


Tuning:Standard

Intro
G|-----------------|
D|-----------------|
A|-----------------|
E|--1/-------------|

G|-----------------|
D|-----------------| X32
A|-----------------|
E|--7--------------|

G|----------------------------------------------------------|
D|----------------------------------------------------------|
A|----------------------------------------------------------|
E|-5-7-7--5-7-7--5-7-7--5-7-7--5-7-7--5-7-7--5-7-5-7-5-7----|

Verse One
G|--------------------------------------------------------------------|
D|----------4-4-7-9---------------------------------------------------|
A|------6-6--------------2-2-5-5-2------------------------------------|
E|--7-7--------------3-3-----------3-5-5--3-5-5--3-5-5--3-5-5---------|

G|--------------------------------------------------------------------|
D|----------4-4-------------------------------------------------------|
A|------6-6-----6---------2-2-5-5-2--------7------7------7------------|
E|--7-7-----------7---3-3-----------3-5-5----5-5----5-5----5-5--------|

G|--------------------------------------------------------------------|
D|--------------------------------------------------------------------|
A|--------------------------------------------------------------------|
E|--7-7-7-7-7-7-7-7-3-3-3-3-3-3-3-3-5-5-5-5-5-5-5-5-0-0-0-0-0-0-0-0---|

G|----------------------------------------------------------|
D|----------------------------------------------------------|
A|----------------------------------------------------------|
E|--1--0-1-0-3--0-3-0-1--0-1-0-10-10-10-10-10--10\----------|
_____________________________________________________________
During live performances, Smorgasbord plays the verse the same 
with the exception of the very beginning which is played like:

G|-------------------|
D|----------4-4------|
A|------5-5-----5-5--|
E|--7-7--------------|

Either Way you choose to play it is pretty cool. 
______________________________________________________________

Chorus One
G|----------------------------------------------------------|
D|----------------------------------------------------------|
A|----------------5-5---------------------------------------|
E|--7-7--7-7-7--7------5--5--3-5-5--5-5-5--2-3-3--5--5-3/---|

G|----------------------------------------------------------|
D|-----------------------------------------3-5-3-5-7-5------|
A|-----------------5-5---------------5--7--------------7----|
E|--7-7--7-7-7-7-5------5--5--3-5-5----------------------5--|

G|----------------------------------------------------------|
D|----------------------------------------------------------|
A|----------------------------------------------------------|
E|--7-7--5-7-7--5-7-7--5-7-7--5-7-7--5-7-7--5-7-5-7-5-7-----|

Verse Two
G|--------------------------------------------------------------------|
D|----------4-4-------------------------------------------------------|
A|------6-6-----6---------2-2-5-5-2-----------------------------------|
E|--7-7-----------7---3-3-----------3-5-5--3-5-5--3-5-5--3-5-5--------|

G|--------------------------------------------------------------------|
D|----------4-4---4---------------------------------------------------|
A|------6-6-----6--------2-2-5-5-2--------7------7------7-------------|
E|--7-7--------------3-3-----------3-5-5----5-5----5-5----5-5---------|

G|--------------------------------------------------------------------|
D|--------------------------------------------------------------------|
A|--------------------------------------------------5-7-7-7-7-7-5-----|
E|--7-7-7-7-7-7-7-7-3-3-3-3-3-3-3-3-5-5-5-5-5-5-5-5---------------7---|

G|---------------------------------------------------------|
D|---------------------------------------------------------|
A|---------------------------------------------------------|
E|--1--0-1-0-3--0-3-0-1--0-1-0-10-10-10-10-10--10\---------|

Chorus Two
G|---------------------------------------------------------|
D|---------------------------------------------------------|
A|----------------5-5--------------------------------------|
E|--7-7--7-7-7--7------5--5--3-5-5--5-5-5--2-3-3--5--5-3/--|

G|---------------------------------------------------------|
D|---------------------------------------------------------|
A|-----------------5-5-------------------------------------|
E|--7-7--7-7-7-7-5------5--5--3-5-5--5-5-5--2-3-3--5--5-3/-|

G|---------------------------------------------------------|
D|---------------------------------------------------------|
A|---------------------------------------------------------|
E|--7-7--5-7-7--5-7-7--5-7-7--5-7-7--5-7-7--5-7-5-7-5-7----|

Guitar Solo

G|--------------------------------------------------------------------|
D|----------4-4-------------------------------------------------------|
A|------6-6-----6---------2-2-5-5-2-----------------------------------|
E|--7-7-----------7---3-3-----------3-5-5--3-5-5--3-5-5--3-5-5--------|

G|--------------------------------------------------------------------|
D|--------------------------------------------------------------------|
A|--------------------------------------------------7-7-7-7-7-7-7\----|
E|--7-7-7-7-7-7-7-7-3-3-3-3-3-3-3-3-5-5-5-5-5-5-5-5-------------------|

G|--------------------------------------------------------|
D|--------------------------------------10-12-------------|
A|--------------------------------10-12-------------------|
E|--1--0-1-0-3--0-3-0-1--0-1-0-10-------------14\---------|

Verse Three
G|--------------------------------------------------------------------|
D|----------4-4-7-9---------------------------------------------------|
A|------6-6--------------2-2-5-5-2------------------------------------|
E|--7-7--------------3-3-----------3-5-5--3-5-5--3-5-5--3-5-5---------|

G|--------------------------------------------------------------------|
D|----------4-4---4---------------------------------------------------|
A|------6-6-----6--------2-2-5-5-2--------7------7------7-------------|
E|--7-7--------------3-3-----------3-5-5----5-5----5-5----5-5---------|

G|--------------------------------------------------------------------|
D|--------------------------------------------------------------------|
A|--------------------------------------------------7-7-5-5-----------|
E|--7-7-7-7-7-7-7-7-3-3-3-3-3-3-3-3-5-5-5-5-5-5-5-5---------7-7-5-5---|

G|-------------------------------------------------------|
D|-------------------------------------------------------|
A|-----------------------------5---5---5-----------------|
E|--1--0-1-0-3--0-3-0-1--0-1-0---5---5---14\-------------|

Chorus 1



| /  slide up
| \  slide down
| h  hammer-on
| p  pull-off
| ~  vibrato
| +  harmonic
| x  Mute note
================================================================
            
Submit corrections



        She's White lessons Hard to play? Try these video lessons and learn fast She's White lessons
        
↑ Back to top | Tablatures and chords for acoustic guitar and electric guitar, ukulele, drums are parodies/interpretations of the original songs. You may use it for private study, scholarship, research or language learning purposes only