» » »

Electric Six - Rubber Rocket Bass

Artists:  A B C D E F G H I J K L M N O P Q R S T U V W X Y Z # 

Rubber Rocket Bass

(ver. 3) Click to play this song!
Electric Six
 Rating:
4/5 (4 votes)


 Rubber Rocket lessons Tabs too difficult? Try these video lessons and learn fast
 
                -------------------------------------------------------------------------------
                           Rubber Rocket - Electric Six
-------------------------------------------------------------------------------

Tuning:Drop D

As with most Electric Six songs where the bass is mainly synth, live is played a 
half step higher or at least was.

Intro/Verse(0:08)
G|-----------------------------------------------------------------------|
D|-----------------------------------------------5-5---------------------| X4
A|---------------------------------------------------7-------------------|
D|--7--7-10-7-10--0--0-3-0-3--7--7-10-7-10--0--0-------------------------|

G|--------------------------------------------------------------------------|
D|--------------------------------------------------------------------------|
A|--------------------------------------------------------------------------|
D|--7--7-10-7-10--0--0-3-0-3--7--7-10-7-10--0--0-5-5-2----------------------|
_____________________________________________________________________________
Live John R. Dequindre would play it:

G|--------------------------------------------------------------------------|
D|---------------------------------------------5-5--------------------------|
A|--------------5--5-8-5-8----------------5--5-----7------------------------|
E|--5--5-8-5-8--------------7--7-10-7-10------------------------------------|
_____________________________________________________________________________



Chorus
G|---------------------------------------------|
D|---------------------------------------------| X2
A|--3-3-0h3-3--0-5-5-3h5-5--5-0-0----0-0-------|
D|---------------------------------------------|

Intro/Verse X1

Chorus X2

G|---------------|
D|---------------|
A|--0-0----0-0---|
D|---------------|

Bridge
G|-----------------------------------------------------------------------|
D|-----------------------------------------------5-5---------------------| X3
A|---------------------------------------------------7-------------------|
D|--7--7-10-7-10--0--0-3-0-3--7--7-10-7-10--0--0-------------------------|

Breakdown/Solo
G|-----------------------------------------------------------------------|
D|-----------------------------------------------5-5-5-55----------------| X4
A|-----------------------------------------------------------------------|
D|--7--7-10-7-10--0--0-3-0-3--7--7-10-7-10--0--0-------------------------|

Chorus X2

Outro
G|--------------------------------------------------------------------------|
D|--------------------------------------------------------------------------|
A|--0-0----0-0----00-00-00-0000-0-33-33-33-3333-3-55-55-55-5555-5-----------|
D|--------------------------------------------------------------------------|

G|-----------------------|
D|-----------------------|
A|--88-88-88-8888-8-0----|
D|-----------------------|



| /  slide up
| \  slide down
| h  hammer-on
| p  pull-off
| ~  vibrato
| +  harmonic
| x  Mute note
===============================================================================
            
Submit corrections



        Rubber Rocket lessons Hard to play? Try these video lessons and learn fast Rubber Rocket lessons
        
↑ Back to top | Tablatures and chords for acoustic guitar and electric guitar, ukulele, drums are parodies/interpretations of the original songs. You may use it for private study, scholarship, research or language learning purposes only