» » »

Electric Six - Pink Flamingos Bass

Artists:  A B C D E F G H I J K L M N O P Q R S T U V W X Y Z # 

Pink Flamingos Bass

(ver. 1) Click to play this song!
Electric Six
 Rating:
4/5 (4 votes)


 Pink Flamingos lessons Tabs too difficult? Try these video lessons and learn fast
 
                -------------------------------------------------------------------------------
                           Pink Flamingos - Electric Six
-------------------------------------------------------------------------------

Tuning:Standard

Intro
G|------------------|
D|------------------| X4
A|------------------|
E|--5--0--5--0-3----|

Verse
G|--------------------------------------------------------------------------|
D|-------------2---------------------------------------2--------------------|
A|---------------2---2---5---5---------------------------2---2---5---5------|
E|--5--0--5--0-----0---3---3---5--0--5--0-3-5--0--5--0-----0---3---3--------|

G|-----------------------------------------------------------------------|
D|-----------------------------------------------------------------------| X2
A|---------------5---5---------------------------------------------------|
E|--5--0--5--0-3---3---5--0--5--0-3-5--0--5--0-3-------------------------|
                                         *_*   
                                           Stop here on repeat before Chorus.
_____________________________________________________________________________

Live Keith plays the verse:
G|--------------------------------------------------------------------------|
D|--------------------2---------5------------------------------------2------|
A|------------------2---2-----5---5--------------------------------2---2----|
E|--5--0--5--0--3-0-------0-3-------3-5--0--5--0-3-5--0--5--0--3-0-------0--|

G|------------------------------------------------------------|
D|------5----------------------5------------------------------| X2
A|----5---5------------------5---5----------------------------|
E|--3-------3-5--0--5--0-5-3-------3-5--0--5--0-3-5--0--5/\---|

_____________________________________________________________________________

Chorus/Solo
G|--------------------------------------------------------------------------|
D|------------2-5-----------------------2-5---------------------------------|
A|-----2-5-3------5---5-3-2-0-----2-5-3-----5---5-3-2-0---------------------|
E|--3---------------5----------3--------------5---------5--0--5--0----------|

G|----------------------------------------------------------|
D|----------------------------------------------------------| X2
A|--3-----3-------------------3-----------------------------|
E|-----3-----3--0-----0-2-3------5--0--5--0-3-5--0--5--0-3--|
_____________________________________________________________________________

Live Keith plays the Chorus/Solo:
G|--------------------------------------------------------------------------|
D|--------------------------------------------------------------------------|
A|---------3--0-3--5-555-555-555-5---------3--0-3-5-555-555-555-5-----------|
E|--3--0-3--------------------------3--0-3----------------------------------|

G|--------------------------------------------------------------------------|
D|--------------------------------------------------------------------------|
A|------------------3-3-3-3-3-3-3-3-------------3---------------------------|
E|--5-5-5-5-5-5-5-5------------------0-----2-3-----5--0--5--0-3-5--0--5-\---|
_____________________________________________________________________________

Verse 2
G|--------------------------------------------------------------------------|
D|-------------2---------------------------------------2--------------------|
A|---------------2---2---5---5---------------------------2---2---5---5------|
E|--5--0--5--0-----0---3---3---5--0--5--0-3-5--0--5--0-----0---3---3--------|

G|-------------------------------------------|
D|-------------------------------------------|
A|---------------5---5-----------------------|
E|--5--0--5--0-3---3---5--0--5--0-3-5--0--5--|

Chorus/Outro
G|--------------------------------------------------------------------------|
D|------------2-5-----------------------2-5---------------------------------|
A|-----2-5-3------5---5-3-2-0-----2-5-3-----5---5-3-2-0---------------------|
E|--3---------------5----------3--------------5---------5--0--5--0----------|

G|--------------------------------------------------------------------------|
D|--------------------------------------------------------------------------|
A|--3-----3-------------------3---------------------------------------------|
E|-----3-----3--0-----0-2-3------5--0--5--0-3-5--0--5--0-3-5--0--5--0-3-----|

G|-----------|
D|-----------|
A|-----------|
E|--5--0--5--|



| /  slide up
| \  slide down
| h  hammer-on
| p  pull-off
| ~  vibrato
| +  harmonic
| x  Mute note
===============================================================================
            
Submit corrections



        Pink Flamingos lessons Hard to play? Try these video lessons and learn fast Pink Flamingos lessons
        
↑ Back to top | Tablatures and chords for acoustic guitar and electric guitar, ukulele, drums are parodies/interpretations of the original songs. You may use it for private study, scholarship, research or language learning purposes only