» » »

Electric Six - Bite Me Bass

Artists:  A B C D E F G H I J K L M N O P Q R S T U V W X Y Z # 

Bite Me Bass

(ver. 1) Click to play this song!
Electric Six
 Rating:
4/5 (4 votes)


 Bite Me lessons Tabs too difficult? Try these video lessons and learn fast
 
                -------------------------------------------------------------------------------
                             Bite Me - Electric Six
-------------------------------------------------------------------------------

Tuning:Standard

Distortion/Overdrive

Verse (0:04)

G|-----------------------------------------------------------------------|
D|-----------------------------------------------------------------------| X3
A|--------------77-5-77-5-----------55---55------------------------------|
E|--0-33-0-55-5-----------77-5-77-5----5---------------------------------|

G|--------------------------------------------------------------------------|
D|----------------------5---------------------------------------------------|
A|--------------777-5h7---7-5---------5-----555---555-----------------------|
E|--0-33-0-55-5---------------777-5h7---7-5-----5-----0-3333-555------------|

Chorus
G|--------------------------------------------------------------------------|
D|--------------------------------------------------------------------------|
A|----------------------------------------5-7p5-0---------------------------|
E|--7--7-7-777-3--3-3-333-0--0-0-000-5--7---------7--7-7-777-3--3-3-333-----|

G|--------------------------------------------------------------------------|
D|--------------------------------------------------------------------------|
A|-------------5-3-0--------------------------------------------------------|
E|--0--0-0-000-------3-5-3--------------------------------------------------|

Verse 2
G|-----------------------------------------------------------------------|
D|-----------------------------------------------------------------------|X4
A|--77-5-77-5-----------55---55------------------------------------------|
E|------------77-5-77-5----5----0-33-0-55--------------------------------|

G|--------------------------------------------------------------------------|
D|----------5---------------------------------------------------------------|
A|--777-5h7---7-5---------5-----555---555-----------------------------------|
E|5---------------777-5h7---7-5-----5-----0-3333-555------------------------|

Chorus

Bridge
G|-----------------------------------------------------------------------|
D|-----------------------------------------------------------------------| X4
A|------7-5-----7-5\-----------7-5---------------------------------------|
E|--5-7-----5-7------------5-7-----5-7-5-3-\-----------------------------|

Verse 3 (2:19)
G|--------------------------------------------------------------------------|
D|--------------------------------------------------------------------------|
A|--------------77-5-77-5-----------55---55---------------------------------|
E|--0-33-0-55-5-----------77-5-77-5----5------------------------------------|

G|--------------------------------------------------------------------------|
D|----------5---------------------------------------------------------------|
A|--777-5h7---7-5---------5-----555---555-----------------------------------|
E|5---------------777-5h7---7-5-----5-----0-3333-555------------------------|

Chorus

(2:45)

G|--------------------------------------------------------------------------|
D|--------------------------------------------------------------------------|
A|----------------------------------------5-7p5-0---------------------------|
E|--7--7-7-777-3--3-3-333-0--0-0-000-5--7---------7--7-7-777-3--3-3-333-----|

G|--------------------------------------------------------------------------|
D|--------------------------------------------------------------------------|
A|--------------------------------------------------------------------------|
E|--0--0-0-000--------------------------------------------------------------|

Outro (2:56)
G|----------------------------------------------------------------------|
D|----------------------------------------------------------------------| X12
A|----------------------------------------------------------------------|
E|--577777773333333300000000--------------------------------------------|



| /  slide up
| \  slide down
| h  hammer-on
| p  pull-off
| ~  vibrato
| +  harmonic
| x  Mute note
===============================================================================
            
Submit corrections



        Bite Me lessons Hard to play? Try these video lessons and learn fast Bite Me lessons
        
↑ Back to top | Tablatures and chords for acoustic guitar and electric guitar, ukulele, drums are parodies/interpretations of the original songs. You may use it for private study, scholarship, research or language learning purposes only