» » »

El Canto Del Loco - La Suerte De Mi Vida Tabs

Artists:  A B C D E F G H I J K L M N O P Q R S T U V W X Y Z # 

La Suerte De Mi Vida Tabs

(ver. 1) Click to play this song!
El Canto Del Loco
 Rating:
4.4/5 (14 votes)

 La Suerte De Mi Vida  lessons Tabs too difficult? Try these video lessons and learn fast
 
                [Intermedio]

     Fm               D#                      
e|---------------------|--------------------|      
B|---------------------|--------------------|
G|---------------------|--------------------|
D|--1s3----3s5----5s6--|---6s8----8s10------|
A|---------------------|--------------------|
E|---------------------|--------------------|

 C#                                                       X2
e|---------------------------|----------------------------|
B|---------------------------|----------------------------|
G|---------------------------|----------------------------|
D|---------------------------|----------------------------|
A|---4-4-4-4-4-4-4--3--1-----|----4-4-4-4-4-4-4--3--1-----|
E|------------------------4--|-------------------------4--|


[Solo]

     G#
e|--------------------------------|----------------------------------|
B|--------------------------------|----------------------------------|
G|--------------------------------|----------------------------------|
D|--10--10--10--8--8--10--10------|----------------------------------|
A|----------------------------11--|--11--11--11--11--11--11--11--11--|
E|--------------------------------|----------------------------------|

   A#m
e|----------------------------------|----------------------------------|
B|----------------------------------|----------------------------------|
G|----------------------------------|----------------------------------|
D|--11--11--11--10--10--11--11------|----------------------------------|
A|------------------------------13--|--13--13--13--13--13--13--13--13--|
E|----------------------------------|----------------------------------|

   Cm
e|----------------------------------|----------------------------------|
B|----------------------------------|----------------------------------|
G|----------------------------------|----------------------------------|
D|--13--13--13--11--11--13--13------|----------------------------------|
A|------------------------------11--|--11--11--11--11--11--11--11--11--|
E|----------------------------------|----------------------------------|

   C#     
e|----------------------------------|----------------------------------|
B|----------------------------------|----------------------------------|
G|----------------------------------|----------------------------------|
D|--15--15--15--13--13--15--15------|----------------------------------|
A|------------------------------11--|--11--11--11--11--11--11--11--11--|
E|----------------------------------|----------------------------------|            
Submit corrections


        La Suerte De Mi Vida  lessons Hard to play? Try these video lessons and learn fast La Suerte De Mi Vida  lessons
        
↑ Back to top | Tablatures and chords for acoustic guitar and electric guitar, ukulele, drums are parodies/interpretations of the original songs. You may use it for private study, scholarship, research or language learning purposes only