Home » E » Ektomorf »

Ektomorf - God Will Cut You Down Tabs

Artists:  A B C D E F G H I J K L M N O P Q R S T U V W X Y Z # 

God Will Cut You Down Tabs

(ver. 1) Click to play this song!
Ektomorf
                                   Tuning: 6 string AEADF#B 

-----------------------------------------------------------------------------------------
                                     INTRO (00:00-00:27)
-----------------------------------------------------------------------------------------

Guitars 1 and 2 (w/ dist)

 B|---------------------------------|--------------------------|
F#|---------------------------------|--------------------------|
 D|---------------------------------|--------------------------| x4
 A|---------------------------------|--------------------------|
 E|---------------------------------|--------------------------|
 A|-3-3-3-3-3-3-3-3-3-3-3-3-3-3-3-3-|-3-3-3-3-3-3-3-3-3--------|

 B|---------------------------------|---------------------------------|
F#|---------------------------------|---------------------------------|
 D|---------------------------------|---------------------------------| x4
 A|---------6-----------6-------6---|---------------------------------|
 E|-0---0---6---0---0---6---0---6---|-0---0---0---0---0---0---0---0---|
 A|-0---0---6---0---0---6---0---6---|-0---0---0---0---0---0---0---0---|
    *   *       *   *       *         *   *   *   *   *   *   *   *

-----------------------------------------------------------------------------------------
                                    VERSE (00:27-00:40)
-----------------------------------------------------------------------------------------

Guitars 1 and 2 (w/ dist)
                                   -------|
 B|------------------------------|        |
F#|------------------------------|        |
 D|------------------------------| x3     | 
 A|-0---0-------0---0------------|        |
 E|-0---0-------0---0------------|        |
 A|-0---0---6---0---0---6--------|        |
                                          | x2
 B|---------------------------------|     |
F#|---------------------------------|     |
 D|---------------------------------|     |
 A|---------------------------------|     |
 E|-0---0---0---0---0---0---0---0---|     |
 A|-0---0---0---0---0---0---0---0---|     |
    *   *   *   *   *   *   *   * --------|

-----------------------------------------------------------------------------------------
                                    CHORUS (00:40-01:00)
-----------------------------------------------------------------------------------------

Guitars 1 and 2 (w/ dist)

 B|---------------------------------|--------------------------|
F#|---------------------------------|--------------------------|
 D|---------------------------------|--------------------------| x4
 A|---------------------------------|--------------------------|
 E|---------------------------------|--------------------------|
 A|-3-3-3-3-3-3-3-3-3-3-3-3-3-3-3-3-|-3-3-3-3-3-3-3-3-3--------|

 B|---------------------------------|---------------------------------|
F#|---------------------------------|---------------------------------|
 D|---------------------------------|---------------------------------| x2
 A|---------6-----------6-------6---|---------------------------------|
 E|-0---0---6---0---0---6---0---6---|-0---0---0---0---0---0---0---0---|
 A|-0---0---6---0---0---6---0---6---|-0---0---0---0---0---0---0---0---|
    *   *       *   *       *         *   *   *   *   *   *   *   *

-----------------------------------------------------------------------------------------
                                    VERSE 2 (01:00-01:12)
-----------------------------------------------------------------------------------------
                                      same as VERSE
-----------------------------------------------------------------------------------------
                                    CHORUS 2 (01:12-01:25)
-----------------------------------------------------------------------------------------

Guitars 1 and 2 (w/ dist)

 B|---------------------------------|--------------------------|
F#|---------------------------------|--------------------------|
 D|---------------------------------|--------------------------| x4
 A|---------------------------------|--------------------------|
 E|---------------------------------|--------------------------|
 A|-3-3-3-3-3-3-3-3-3-3-3-3-3-3-3-3-|-3-3-3-3-3-3-3-3-3--------|

-----------------------------------------------------------------------------------------
                                     BRIDGE (01:25-2:36)
-----------------------------------------------------------------------------------------

Guitars 1 and 2 (w/ dist)

 B|---------------------------------|------------------------------|
F#|---------------------------------|------------------------------|\
 D|---------------------------------|------------------------------| \
 A|-----------------6---------------|-----6------------------------|  \
 E|-0---0-------0---6---0---0-------|-0---6---0---0----------------|   \
 A|-0---0---0---0---6---0---0---0---|-0---6---0---0---0---0---0----|    \
    *   *       *       *   *         *       *   *                      x2
 B|---------------------------------|---------------------------------| /
F#|---------------------------------|---------------------------------|/
 D|---------------------------------|---------------------------------|
 A|---------------------------------|---------------------------------|
 E|-0---0---0---0---0---0---0---0---|-0---0---0---0---0---0---0---0---|
 A|-0---0---0---0---0---0---0---0---|-0---0---0---0---0---0---0---0---|
    *   *   *   *   *   *   *   *     *   *   *   *   *   *   *   *
 B|---------------------|--------------------|
F#|---------------------|--------------------|
 D|---------------------|--------------------| x2
 A|-0----0----0----0----|--------------------|
 E|-0----0----0----0----|--------------------|
 A|-0----0----0----0----|--------------------|

 B|---------------------------------|------------------------------|
F#|---------------------------------|------------------------------|\
 D|---------------------------------|------------------------------| \
 A|-----------------6---------------|-----6------------------------|  \
 E|-0---0-------0---6---0---0-------|-0---6---0---0----------------|   \
 A|-0---0---0---0---6---0---0---0---|-0---6---0---0---0---0---0----|    \
    *   *       *       *   *         *       *   *                      x2
 B|---------------------------------|---------------------------------| /
F#|---------------------------------|---------------------------------|/
 D|---------------------------------|---------------------------------|
 A|---------------------------------|---------------------------------|
 E|-0---0---0---0---0---0---0---0---|-0---0---0---0---0---0---0---0---|
 A|-0---0---0---0---0---0---0---0---|-0---0---0---0---0---0---0---0---|
    *   *   *   *   *   *   *   *     *   *   *   *   *   *   *   *
 B|---------------------|--------------------|
F#|---------------------|--------------------|
 D|---------------------|--------------------| x4
 A|-0----0----0----0----|--------------------|
 E|-0----0----0----0----|--------------------|
 A|-0----0----0----0----|--------------------|

 B|---------------------------------|------------------------------|
F#|---------------------------------|------------------------------|
 D|---------------------------------|------------------------------| x4
 A|---------------------------------|------------------------------|
 E|-0---0-------0-------0---0-------|-0-------0---0----------------|
 A|-0---0---3---0---3---0---0---3---|-0---3---0---0---3----3---3---|
    *   *       *       *   *         *       *   *  
-----------------------------------------------------------------------------------------
                                     OUTRO (02:36-03:05)
-----------------------------------------------------------------------------------------

I.  Guitars 1 and 2 (w/ dist)

 B|--------|-------|-------|-------|
F#|--------|-------|-------|-------|
 D|--------|-------|-------|-------|
 A|-0------|-------|-------|-------|
 E|-0------|-------|-------|-------|
 A|-0------|-------|-------|-------|

   Guitar 3 plays some noises with wah-wah, probably pick scratches

II. Guitars 1 and 2 (w/ dist)

 B|---------------------------------|--------------------------|
F#|---------------------------------|--------------------------|
 D|---------------------------------|--------------------------| x4
 A|---------------------------------|--------------------------|
 E|---------------------------------|--------------------------|
 A|-0-0-0-0-0-0-0-0-0-0-0-0-0-0-0-0-|-0-0-0-0-0-0-0-0-0--------|
    * * * * * * * * * * * * * * * *   * * * * * * * * *
            
Submit corrections

↑ Back to top | Tablatures and chords for acoustic guitar and electric guitar, ukulele, drums are parodies/interpretations of the original songs. You may use it for private study, scholarship, research or language learning purposes only