» » »

Eisley - Taking Control Tabs

Artists:  A B C D E F G H I J K L M N O P Q R S T U V W X Y Z # 

Taking Control Tabs

(ver. 1) Click to play this song!
Eisley
 Rating:
4.3/5 (6 votes)

 Taking Control lessons Tabs too difficult? Try these video lessons and learn fast
 
                ----------------------------------------------------------------------------
----------------------------------------------------------------------------

    I haven't seen many Eisley songs tabbed out yet, so I'm going to do my best to
out the ones that aren't posted. Hopefully I do a good job.

Tuning:EADGBe

Verse:

   When we get down....
   D#          G#
e|----------------------------------------------------------------| Listen to the song for timing
B|----------------------------------------------------------------|and for how many times you have to
G|----------------------------------------------------------------|        do this part
D|-13-13-13/---6-6-6-6-6------------------------------------------|   I think its like 8 times
A|-13-13-13/---6-6-6-6-6------------------------------------------|  On the 8th stay on the G#'s
E|-11-11-11/---4-4-4-4-4------------------------------------------|before moving on to the pre-chorus

Pre-Chorus:

  And We Won't Take it...
   D# F D# B     D# F  D# B
e|----------------------------------|
B|----------------------------------|
G|---------4~-------------4~--------| I'm not sure about this
D|----3~------------3~--------------|  part but I think its
A|-4~---4~-------4~----4~-----------|          close
E|----------------------------------|

Chorus:

   You've been taking control...
   C        G#       D#    F#
e|--------------------------------------|
B|--------------------------------------|
G|-5-5-x-x-----------8-8-/-10-10-10-----| Repeat this a couple of times
D|-5-5-x-x--6-6-x-x--8-8-/-10-10-10-----|     listen to the song for
A|-3-3-x-x--6-6-x-x--6-6-/-8--8--8------|        correct timing
E|----------4-4-x-x---------------------|         x 3 I think

Pre-Chorus: x 1
Verse: x 8
Pre-Chorus: x 1
Chorus: x 3
Pre-Chorus: x 1

Solo:

   C   D#  A# G# G  F     F D# F  G  F  D#
e|--------------------------------------------|
B|--------------------------------------------|
G|---------15-13-12-10~---10-8-10-12-10-8-----|
D|-----13~------------------------------------|
A|-15~----------------------------------------|
E|--------------------------------------------|

   C   D#  A# G# G  F     A# A# G    A# A# G  F  G  F  D#
e|----------------------------------------------------------|
B|----------------------------------------------------------|
G|---------15-13-12-10~---15-15-12~--15-15-12-10-12-10-8~---|
D|-----13~--------------------------------------------------|
A|-15~------------------------------------------------------|
E|----------------------------------------------------------|

Verse: x 8 (start with the 466xxx{G#} instead of 11.13.13xxx{D#})
Pre-Chorus x 1
Chorus x 4

Then the keyboard finishes the song. I think they just play the chorus on keys. If you
want me to figure out the keyboard parts just comment or message me and I'll do my best
get them to you. Thank you so much for looking at my tab please rate and I hope I've been helpfull.

| /  slide up
| \  slide down
| h  hammer-on
| p  pull-off
| ~  vibrato
| +  harmonic
| x  Mute note
============================================================================
            
Submit corrections


        Taking Control lessons Hard to play? Try these video lessons and learn fast Taking Control lessons
        
↑ Back to top | Tablatures and chords for acoustic guitar and electric guitar, ukulele, drums are parodies/interpretations of the original songs. You may use it for private study, scholarship, research or language learning purposes only