» » »

Einherjer - Storms Of The Elder Tabs

Artists:  A B C D E F G H I J K L M N O P Q R S T U V W X Y Z # 

Storms Of The Elder Tabs

(ver. 1) Click to play this song!
Einherjer
 Rating:
4/5 (4 votes)

 Storms Of The Elder lessons Tabs too difficult? Try these video lessons and learn fast
 
                        EINHERJER - STORMS OF THE ELDER
        From the Album DRAGONS OF THE NORTH
        Copyright 1995 NAPALM RECORDS 1996
        
        Version 1.0  (UNCOMPLETED) SEPTEMBER 1999

        Transcription Done By: Valkur
        For Questions, Comments, Corrections, or Newest Version; 


.  - palm mute                          /  - slide up to                       
\  - slide down to                      ~  - let ring
h  - hammer on                          p  - pull off                                 
*  - see comment


Note : This is my first transcription so beware!. Timing sn't correct, you'll 
        have to listen to the song to catch it.

Note2: I'm also looking for Dismal Euphony tabs so if you know where to find 
        some mail me.


RIFF INTRO(x2)                                         (12's, picked fast)
|--------------------------------------------------------*---------------------|
|----------12-----------12---------------------10--------1212-10---------------|
|-9-11-12-9----9-11-12-9-----9-11-12-9----11-12----12-11---------12-11-12-11-9-|
|------------------------------------------------------------------------------|
|------------------------------------------------------------------------------|
|------------------------------------------------------------------------------|

RIFF INTRO2 (x2) (similar to  RIFF INTRO, the other guitar fills the gaps)
|----------------------------------------------| |--------|
|--------------12------------------------------| |--------|
|*--9-11-12-9----------------------9-11-12-9--*| |----9~--|
|*--------------------------------------------*| |----9~--|
|----------------------------------------------| |----7~--|
|----------------------------------------------| |----*---|
                                                      *fill-in second time

RIFF 1 (x2) 
|------------------------------------------------------------------------------|
|------------------------------------------------------------------------------|
|-7-9~------9\11-11~----11\12-12~-----12\14-14~---10-11-9~---------------------|
|-7-9~------9\11-11~----11\12-12~-----12\14-14~---10-11-9~---------------------|
|-5-7~------7\9--9~------9\10-10~-----10\12-12~---10-9--7~---------------------|
|------------------------------------------------------------------------------|

RIFF 1 (cont)
|------------------------------------------------------------------------------|
|------------------------------------------12~--13-12-10~--12-10-8~--10-8-7~---|
|-9\11-11~---11\12-12~---12/11-11~---12-11-11~--12-11--9~--11-9--7~--9--7-6~---|
|-9\11-11~---11\12-12~---12/11-11~---12-11-9~---10--9--7~--9--7--5~--7--5-4~---|
|-7\9--9~-----9\10-10~---10/9---9~---10-9--------------------------------------|
|------------------------------------------------------------------------------|

RIFF 1 (cont)
|--------------------------------------------|
|-----------5~\------------------------------|
|----6/7~---4~\------------------------------|
|----4/5~---2~\------------------------------|
|--------------------------------------------|
|--------------------------------------------|

RIFF INTRO2(X2)
RIFF INTRO(X2) 

RIFF 2 (x4)
|----------------------------------------|
|----------------------------------------|
|--9-9-9-9-9-9-9-9---9-9-9-9--7-7-7-7----|
|--9-9-9-9-9-9-9-9---9-9-9-9--7-7-7-7----|
|--7-7-7-7-7-7-7-7---8-8-8-8--5-5-5-5----|
|----------------------------------------|

RIFF 1 (X2)

RIFF INTRO2(X2)
RIFF INTRO(X2) 

RIFF 3 (ACOUSTIC) (NOT YET)
RIFF 4 (ACOUSTIC) (NOT YET)
RIFF 5 (NOT YET)
RIFF 6 (NOT YET)
...


I don't have too much time now, so I'll finish it later.
            
Submit corrections


        Storms Of The Elder lessons Hard to play? Try these video lessons and learn fast Storms Of The Elder lessons
        
↑ Back to top | Tablatures and chords for acoustic guitar and electric guitar, ukulele, drums are parodies/interpretations of the original songs. You may use it for private study, scholarship, research or language learning purposes only