» » »

Eight Stops Seven - My Would Be Saviour Tabs

Artists:  A B C D E F G H I J K L M N O P Q R S T U V W X Y Z # 

My Would Be Saviour Tabs

(ver. 1) Click to play this song!
Eight Stops Seven
 Rating:
4/5 (4 votes)
                8Stops7 - My Would Be Savior

DADGBE

Intro/Verse/Pre-Chorus

|----------------------------------| 
|----------------------------------| 
|----------------------------------|
|----------------------------------|
|----------------------------------|
|-0-0-0-3-3-3-4-4-4-5-5-4-4-3-3----| 

There's a few variations on this for the different parts, the pre-chorus is the same thing but different strumming and a wah.

Chorus

|----------------------|---------------------------------------------------|
|----------------------|---------------------------------------------------|
|----------------------|---------------------------------------------------|
|-5-x-x-5-x-x-5-x-x-5--|---------------------------------------------------|
|-3-x-x-3-x-x-3-x-x-3--|-6-5p0-3-0--5-3-0---3h5-5---6-5p0-3-3--5-3-0---5-5-|
|----------------------|-6-5p0-3-0--------0-3h5-5---6-5p0-3-3--------0-5-5-|

|----------------------------|
|----------------------------|
|----------------------------|
|----------------------------|
|-6-5p0-3-3--5-5--3\\\\\\----|
|-6-5p0-3-3--5-5--3\\\\\\----|

The slow part seams pretty simple as most of the melody is in the bass while the guitar seems to just pick the notes of the D chord on all 6 strings.

Bridge			Ending bit

|-----------------------|------------|
|-----------------------|------------|
|-----------------------|------------|
|-----------------------|------------|
|--5-4-3-4-3-0--3-5-----|-5-4-3-4-3--|
|--5-4-3-4-3-0----------|-5-4-3-4-3--|

This goes for a little while the there's some more verse I think and another chorus and then the bridge riff with the variation played on it for the last time. You can figure out where to play each bit.

As usual, no comments 'cos I don't care

Chooka
            
Submit corrections

↑ Back to top | Tablatures and chords for acoustic guitar and electric guitar, ukulele, drums are parodies/interpretations of the original songs. You may use it for private study, scholarship, research or language learning purposes only