Home » E » Eighteen Visions »

Eighteen Visions - One Hell Of A Prize Fighter Tabs

Artists:  A B C D E F G H I J K L M N O P Q R S T U V W X Y Z # 

One Hell Of A Prize Fighter Tabs

(ver. 1) Click to play this song!
Eighteen Visions
Intro A
 
Rhythm
B |-------------------------------------------------------------------------|
F#|-------------------------------------------------------------------------|
D |-------------------------------------------------------------------------|
A |-------------------------------------------------------------------------|
E |----------------------------------------------1-1-1-1--2-2-2-2--4-4-4-4--|
A |--1-1-1-1-1-1-1-1--2-2-2-2--1-1-1-1--2-2-2-2-----------------------------|
 
Lead
B |----------------------|
F#|--9-----9----9----9\--|
D |--13------13---13-----|
A |----------------------|
E |----------------------|
A |----------------------|
 
Intro B
 
B |-------------------------------------------------------------------------|
F#|-------------------------------------------------------------------------|
D |----------------------------------------------3-3-3-3--4-4-4-4--6-6-6-4--|
A |--1-1-1-1-1-1-1-1--2-2-2-2--1-1-1-1--2-2-2-2--2-2-2-2--3-3-3-3--5-5-5-5--|
E |--1-1-1-1-1-1-1-1--2-2-2-2--1-1-1-1--2-2-2-2--1-1-1-1--2-2-2-2--4-4-4-4--|
A |--1-1-1-1-1-1-1-1--2-2-2-2--1-1-1-1--2-2-2-2-----------------------------|
 
Cont...
B |--------------------------------------------------------------|
F#|--------------------------------------------------------------|
D |----------------------------------------------3-3-3-3---------|
A |--1-1-1-1-1-1-1-1--2-2-2-2--1-1-1-1--2-2-2-2--2-2-2-2--4-2-0--|
E |--1-1-1-1-1-1-1-1--2-2-2-2--1-1-1-1--2-2-2-2--1-1-1-1--4-2-0--|
A |--1-1-1-1-1-1-1-1--2-2-2-2--1-1-1-1--2-2-2-2-----------4-2-0--|
 
 
Verse
 
Part A
B |------------------------------------|
F#|------------------------------------|
D |------------------------------------|
A |------------------------------------|
E |--1---0-1-0-2-0-1-0-2-0-1-0--4-2-0--|
A |--1---0-1-0-2-0-1-0-2-0-1-0--4-2-0--|
 
Part B with pinch harmonics
B |-------------------------------------|-----------|
F#|-------------------------------------|-----------|
D |-------------------------------------|-----------|
A |-------------------------------------|-----------|
E |--4+---0-1-0-2-0-1-0-2-0-1-0--4-2-0--|--4-2-0-1--|
A |-------0-1-0-2-0-1-0-2-0-1-0--4-2-0--|--4-2-0-1--|
 
 
Breakdown
B |-----------------------------------------------------------------|
F#|-----------------------------------------------------------------|
D |----------------------------------------------/7-7-7-7--7-7-7-7--|
A |------------------------------------------1--1/6-6-6-6--6-6-6-6--|
E |--0-0-0-0--0-0-0-0--0---------------------1--1/5-5-5-5--5-5-5-5--|
A |--0-0-0-0--0-0-0-0--0----1h2-0-2h4-0-1h2--1--1-------------------|
 
 
Transition
 
Rhythm
B |--------------------|--------------------|--------------------|
F#|--------------------|--------------------|--4-4-4-4--4-4-4-4--|
D |--7-7-7-7--7-7-7-7--|--7-7-7-7--7-7-7-7--|--7-7-7-7--7-7-7-7--|
A |--6-6-6-6--6-6-6-6--|--6-6-6-6--6-6-6-6--|--------------------|
E |--5-5-5-5--5-5-5-5--|--5-5-5-5--5-5-5-5--|--------------------|
A |--------------------|--------------------|--------------------|
 
Lead
B |--------------------|--------------------|----------------------------|
F#|--------------------|--------------------|--14-14-14-14--14-14-14-14--|
D |--7-7-7-7--7-7-7-7--|--7-7-7-7--7-7-7-7--|--17-17-17-17--17-17-17-17--|
A |--6-6-6-6--6-6-6-6--|--6-6-6-6--6-6-6-6--|----------------------------|
E |--5-5-5-5--5-5-5-5--|--5-5-5-5--5-5-5-5--|----------------------------|
A |--------------------|--------------------|----------------------------|
 
 
Breakdown
B |------------------------------------|------------------------------------|-----------------|
F#|------------------------------------|------------------------------------|-----------------|
D |------------------------------------|------------------------------------|-----------------|
A |------------------------------------|------------------------------------|-----------------|
E |--0---0-1-0-2-0-1-0-2-0-1-0--4-2-0--|--1---0-1-0-2-0-1-0-2-0-1-0--4-2-0--|--0-0-0-0---0-0--|
A |--0---0-1-0-2-0-1-0-2-0-1-0--4-2-0--|--1---0-1-0-2-0-1-0-2-0-1-0--4-2-0--|--0-0-0-0---0-0--|
 
 
Metal
B |-------------------------------------------------------------------------|
F#|-------------------------------------------------------------------------|
D |-------------------------------------------------------------------------|
A |-------------------------------------------------------------------------|
E |--0-0-0-0-5h8--0-0-0-0-4h7--0-0-3h6--0-0-0-0-5h8--0-0-0-0-4h7--3----2----|
A |--0-0-0-0------0-0-0-0------0-0------0-0-0-0------0-0-0-0--------h4--h3--|
 
 
Metal w/ Double bass "Go!"
B |---------------------------------------------------------|
F#|---------------------------------------------------------|
D |---------------------------------------------------------|
A |---------------------------------------------------------|
E |------------------5h8------------------4h7----------3h6--|
A |--0-0-0-0-0-0-0-0------0-0-0-0-0-0-0-0------0-0-0-0------|
 
Cont...
B |------------------------------------------------------|
F#|------------------------------------------------------|
D |------------------------------------------------------|
A |------------------------------------------------------|
E |------------------5h8------------------4h7--3----2----|
A |--0-0-0-0-0-0-0-0------0-0-0-0-0-0-0-0--------h4--h3--|
 
Metal Lead harmony
 
B |-------------------------------------|--------------------------------------|
F#|-------------------------------------|--------------------------------------|
D |-------------------------------------|--------------------------------------|
A |----------3h6----------2h5------1h4--|----------3h6----------2h5------------|
E |--0-0-0-0------0-0-0-0------0-0------|--0-0-0-0------0-0-0-0------3----2----|
A |--0-0-0-0------0-0-0-0------0-0------|--0-0-0-0------0-0-0-0--------h4--h3--|
 
Metal transition
 
B |---------------------------------------|
F#|---------------------------------------|
D |---------------------------------------|
A |---------------------------------------|
E |--3----2---1-----3----2---1-----4-2-0--|
A |----h4--h3---h2----h4--h3---h2--4-2-0--|
 
 
"Scatter brained and hopeless..."
 
B |----------------------------------------------------------------------------|
F#|----------------------------------------------------------------------------|
D |----------------------------------------------------------------------------|
A |----------------------------------------------------------------------------|
E |---------------------------------------------------------------3h4-----4h5--|
A |--1-1-2-2-4-4---1-1-2-2-4-4---1-1-2-2---1-1-2-2-4-4---1-1--3h4-----4h5------|
 
Break - Rhythm Guitar with toms
 
B |-----------------------------------|
F#|-----------------------------------|
D |-----------------------------------|
A |----------------------0-0-----0-0--|
E |----------------------0-0-----0-0--|
A |----------------------0-0-----0-0--|
 
Transition
 
Rhythm
B |---------------------------------------|
F#|---------------------------------------|
D |---------------------------------------|
A |---------------------------------------|
E |------3h4-----4h5------3h4-----4h5-5~--|
A |--3h4-----4h5------3h4-----4h5---------|
 
Lead
B |---------------------------------------|
F#|---------------------------------------|
D |---------------------------------------|
A |-----------------------3h4-----4h5-5~--|
E |------3h4-----4h5--3h4-----4h5---------|
A |--3h4-----4h5--------------------------|
 
 
Breakdown "No here's your misery..."
B |-------------------------------------------------------------------------------------------------|
F#|-------------------------------------------------------------------------------------------------|
D |-------------------------------------------------------------------------------------------------|
A |-------------------------------------------------------------------------------------------------|
E |-------------------------------------------------------------------------------------------------|
A |--0-0-0---1-1-1---2-2-2---0-0-0---1-1-1---2-2-2---1-1-1---0-0-0---1-1-1---2-2-2---0-0-0---1-1-1--|
 
Cont...
B |-----------------|
F#|-----------------|
D |-----------------|
A |-----------------|
E |----------4------|
A |--2-1--1----2-1--|
 
 
"I'll watch you sleep..."
 
Part A
B |-------------------------------|------------------|
F#|-------------------------------|------------------|
D |-------------------------------|------------------|
A |-------------------------------|--0-0--3--6-6--2--|
E |-------------------------------|--0-0--3--6-6--2--|
A |--2p1-1-1-1--2p1-1-1-1--0h1-1--|--0-0--3--6-6--2--|
 
Part B
B |---------------------------------|---------------------|
F#|---------------------------------|---------------------|
D |---------------------------------|---------------------|
A |--2p1-1-1-1---2p1-1-1-1---0h1-1--|--0-0---3---6-6---2--|
E |--2p1-1-1-1---2p1-1-1-1---0h1-1--|--0-0---3---6-6---2--|
A |--2p1-1-1-1---2p1-1-1-1---0h1-1--|--0-0---3---6-6---2--|
 
 
Black metal
 
Chords
B |------------------------------------|
F#|------------------------------------|
D |--7-7-7----7-7-7--------------------|
A |--7-7-7----8-8-8----7-7-7----3-3-3--|
E |--5-5-5----5-5-5----3-3-3----1-1-1--|
A |--------------------3-3-3----1-1-1--|
 
Tremolo
 
Rhythm
B |---------------------------------------------------------------------------|
F#|---------------------------------------------------------------------------|
D |---------------------------------------------------------------------------|
A |--7-7-7-7--7-7-7-7--7-7-7-7--7-7-7-7---8-8-8-8--8-8-8-8--8-8-8-8--8-8-8-8--|
E |---------------------------------------------------------------------------|
A |---------------------------------------------------------------------------|
 
Rhythm Cont...
B |---------------------------------------------------------------------------|
F#|---------------------------------------------------------------------------|
D |---------------------------------------------------------------------------|
A |--7-7-7-7--7-7-7-7--7-7-7-7--7-7-7-7---3-3-3-3--3-3-3-3--3-3-3-3--3-3-3-3--|
E |---------------------------------------------------------------------------|
A |---------------------------------------------------------------------------|
 
Lead
B |---------------------------------------------------------------------------|
F#|---------------------------------------------------------------------------|
D |---------------------------------------------------------------------------|
A |--4-4-4-4--4-4-4-4--4-4-4-4--4-4-4-4---5-5-5-5--5-5-5-5--5-5-5-5--5-5-5-5--|
E |---------------------------------------------------------------------------|
A |---------------------------------------------------------------------------|
 
Lead Cont...
B |---------------------------------------------------------------------------|
F#|---------------------------------------------------------------------------|
D |---------------------------------------------------------------------------|
A |--7-7-7-7--7-7-7-7--7-7-7-7--7-7-7-7---3-3-3-3--3-3-3-3--3-3-3-3--3-3-3-3--|
E |---------------------------------------------------------------------------|
A |---------------------------------------------------------------------------|
 
 
Ending
B |--------------------------------------|
F#|--------------------------------------|
D |--------------------------------------|
A |--------------------------------------|
E |--0-1-2--0-1-2-1-0--1-2-0-1--0-4-4-3--|
A |--0-1-2--0-1-2-1-0--1-2-0-1--0-4-4-3--|
 
            
Submit corrections

↑ Back to top | Tablatures and chords for acoustic guitar and electric guitar, ukulele, drums are parodies/interpretations of the original songs. You may use it for private study, scholarship, research or language learning purposes only