Home » E » Eighteen Visions »

Eighteen Visions - Fashion Show Tabs

Artists:  A B C D E F G H I J K L M N O P Q R S T U V W X Y Z # 

Fashion Show Tabs

(ver. 1) Click to play this song!
Eighteen Visions
Intro w/ snare roll "She couldn't kill me..."
 
B |------|--------|--------------|
F#|------|--------|--------------|
D |--6\--|--7-6\--|--7-6---7-6\--|
A |--5\--|--6-5\--|--6-5-0-6-5\--|
E |--3\--|--4-3\--|--4-3-0-4-3\--|
A |--3\--|--4-3\--|--4-3-0-4-3\--|
 
 
Verse "See me dancing in the rain..."
 
B |-------------------------------------------|
F#|-------------------------------------------|
D |-------------------------------3-----------|
A |--5--0--6--5--0-0-0--1--0-0-0--3--0-1-0-6--|
E |--3--0--4--3--0-0-0--1--0-0-0--1--0-1-0-4--|
A |--3--0--4--3--0-0-0--1--0-0-0-----0-1-0-4--|
 
 
Breakdown " I try to run and hide..."
 
B |-------------------------------------|
F#|-------------------------------------|
D |-------------------------------------|
A |--3---0-0-0-0-0-0---3-0-0-1-0-3-0-4--|
E |--3---0-0-0-0-0-0---3-0-0-1-0-3-0-4--|
A |--3---0-0-0-0-0-0---3-0-0-1-0-3-0-4--|
 
 
Transition
 
B |----------------------------------------|
F#|----------------------------------------|
D |----------------------------------------|
A |--3--0--3--0-3-2-0-2---0-2-1-0-1-0---5--|
E |--3--0--3--0-3-2-0-2---0-2-1-0-1-0---6--|
A |--3--0--3--0-3-2-0-2---0-2-1-0-1-0------|
 
 
Creepy "This hot pink is way too bright
 
B |-------------------|---------------------------------|
F#|-------------------|---------------------------------|
D |-------------------|---------------------------------|
A |--5-2-1-2-2-6-5-2--|--6-6-3-3-2-2-3-3-0-----7--6--3--|
E |--6-3-2-3-0-7-6-3--|--6-6-3-3-2-2-3-3-0-----7--6--3--|
A |-------------------|--6-6-3-3-2-2-3-3-0-----7--6--3--|
 
 
Rhythm Double bass + blast
 
B |---------------------------------------------------------------------------------------------------|
F#|---------------------------------------------------------------------------------------------------|
D |---------------------------------------------------------------------------------------------------|
A |---------------------------------------------------------------------------------------------------|
E |--6-6-6-6-6-6-6-6-6-6-6-6-6-6-6-6-3-3-3-3-3-3-3-3-3-3-3-3-3-3-3-3-0-0-0-0-0-0-0-0-0-0-0-0-0-0-0-0--|
A |---------------------------------------------------------------------------------------------------|
 
B |-----------------------------------|
F#|-----------------------------------|
D |-----------------------------------|
A |-----------------------------------|
E |--7-7-7-7-7-7-7-7-6-6-6-6-3-3-3-3--|
A |-----------------------------------|
 
 
Lead Double bass + blast
 
B |---------------------------------------------------------------------------------------------------|
F#|---------------------------------------------------------------------------------------------------|
D |---------------------------------------------------------------------------------------------------|
A |--4-4-4-4-4-4-4-4-4-4-4-4-4-4-4-4-1-1-1-1-1-1-1-1-1-1-1-1-1-1-1-1-3-3-3-3-3-3-3-3-3-3-3-3-3-3-3-3--|
E |---------------------------------------------------------------------------------------------------|
A |---------------------------------------------------------------------------------------------------|
 
B |-----------------------------------|
F#|-----------------------------------|
D |-----------------------------------|
A |--7-7-7-7-7-7-7-7-6-6-6-6-3-3-3-3--|
E |-----------------------------------|
A |-----------------------------------|
 
 
Guitar break "Yaaaah... I could be so abstract"
 
B |-------------------------------|-----------|
F#|-------------------------------|-----------|
D |-------------------------------|-----------|
A |--4-0-1-2-0-1-0-4-0-1-2-0-1-0--|--1-2-0-4--|
E |--4-0-1-2-0-1-0-4-0-1-2-0-1-0--|--1-2-0-4--|
A |-------------------------------|--1-2-0-4--|
 
 
Breakdown "I could be so abstract
 
B |-----------------------------|-----------------------------------|
F#|-----------------------------|-----------------------------------|
D |-----------------------------|-----------------------------------|
A |--4-0-1-2-0-1-0-4-0-1-2-0-1--|--4-0-1-2-0-1-0-4-0-1-2-0-1-1-1-1--|
E |--4-0-1-2-0-1-0-4-0-1-2-0-1--|--4-0-1-2-0-1-0-4-0-1-2-0-1-1-1-1--|
A |--4-0-1-2-0-1-0-4-0-1-2-0-1--|--4-0-1-2-0-1-0-4-0-1-2-0-1-1-1-1--|
 
 
Double bass A - "Yaaah... You're the one holding me down"
 
B |---------------------------------------------------------------------------------------|
F#|---------------------------------------------------------------------------------------|
D |---------------------------------------------------------------------------------------|
A |--3---0-0-0--0-0-0--0-0-0---3-0-1-0-3-0-4-0-3---0-0-0--0-0-0--0-0-0----------------4+--|
E |--3---0-0-0--0-0-0--0-0-0---3-0-1-0-3-0-4-0-3---0-0-0--0-0-0--0-0-0----4-6-4-3-5-3-----|
A |--3---0-0-0--0-0-0--0-0-0---3-0-1-0-3-0-4-0-3---0-0-0--0-0-0--0-0-0--------------------|
 
Double bass B - "Yaaah... You're the one holding me down"
 
B |---------------------------------------------------------------------------------------|
F#|---------------------------------------------------------------------------------------|
D |---------------------------------------------------------------------------------------|
A |--3---0-0-0--0-0-0--0-0-0---3-0-1-0-3-0-4-0-3---0-0-0--0-0-0--0-0-0--------------------|
E |--3---0-0-0--0-0-0--0-0-0---3-0-1-0-3-0-4-0-3---0-0-0--0-0-0--0-0-0----4-6-4-3-5-3-----|
A |--3---0-0-0--0-0-0--0-0-0---3-0-1-0-3-0-4-0-3---0-0-0--0-0-0--0-0-0----------------4+--|
 
 
"Sugar! Sugar!"
 
B |---------------------------------------------------------|--------------|
F#|---------------------------------------------------------|--------------|
D |---------------------------------------------------------|--------------|
A |--0-0-0--0-0-0----0-0-0--0-0-0--0-0-0--2-0-1-2--1/2------|--1---2---3---|
E |--0-0-0--0-0-0----0-0-0--0-0-0--0-0-0--2-0-1-2--1/2--3+--|--1---2---3---|
A |--0-0-0--0-0-0----0-0-0--0-0-0--0-0-0--2-0-1-2-----------|--1---2---3---|
 
 
"Tell me! Tell me! Don't you f**kin..."
 
B |-----------------------------|-----------|
F#|--------------------------4--|-----------|
D |--6-------------6---------7--|-----------|
A |--5-0-1-2-0-1-0-5-0-1-2-0----|--1-1-1-1--|
E |--4-0-1-2-0-1-0-4-0-1-2-0----|--1-1-1-1--|
A |----0-1-2-0-1-0---0-1-2-0----|--1-1-1-1--|
 
 
Template
 
B |-----------------------------------------------------------------------------------|
F#|-----------------------------------------------------------------------------------|
D |-----------------------------------------------------------------------------------|
A |-----------------------------------------------------------------------------------|
E |-----------------------------------------------------------------------------------|
A |-----------------------------------------------------------------------------------|
            
Submit corrections

↑ Back to top | Tablatures and chords for acoustic guitar and electric guitar, ukulele, drums are parodies/interpretations of the original songs. You may use it for private study, scholarship, research or language learning purposes only