Home » E » Efek Rumah Kaca »

Efek Rumah Kaca - Desember Tabs

Artists:  A B C D E F G H I J K L M N O P Q R S T U V W X Y Z # 

Desember Tabs

(ver. 2) Click to play this song!
Efek Rumah Kaca

[Intro]
e|-----0-----|-----------|-----------|-----------| 
B|--0-----0--|-----------|-----0-----|-----0--3--|
G|-----------|--2--------|--0-----0--|--2--------|
D|-----------|-----------|-----------|--4--------|
A|--3--------|--2--------|-----------|-----------|
E|-----------|-----------|--0--------|-----------|

e|-----0-----|-----------|-----------|-----0-----| 
B|--0-----0--|-----------|-----0-----|--------3--|
G|-----------|--2--------|--0-----0--|--2--------|
D|-----------|-----------|-----------|--4--------|
A|--3--------|--2--------|-----------|-----------|
E|-----------|-----------|--0--------|-----------|

[Verse 1]
e|-----0-----|-----------|-----------|-----------| 
B|--0-----0--|-----------|-----0-----|-----0--3--|
G|-----------|--2--------|--0-----0--|--2--------|
D|-----------|-----------|-----------|--4--------|
A|--3--------|--2--------|-----------|-----------|
E|-----------|-----------|--0--------|-----------|
   S'lalu  a    da       yang bernya- nyi dan ber-

e|-----0-----|-----------|-----------|-----0-----| 
B|--0-----0--|-----------|-----0-----|--------3--|
G|-----------|--2--------|--0-----0--|--2--------|
D|-----------|-----------|-----------|--4--------|
A|--3--------|--2--------|-----------|-----------|
E|-----------|-----------|--0--------|-----------|
    e-    le    gi         di ba lik   a- wan hi-

e|-----0-----|-----------|-----------|-----------| 
B|--0-----0--|-----------|-----0-----|-----0--3--|
G|-----------|--2--------|--0-----0--|--2--------|
D|-----------|-----------|-----------|--4--------|
A|--3--------|--2--------|-----------|-----------|
E|-----------|-----------|--0--------|-----------|
   ta-          m

[Verse 2]
e|-----0-----|-----------|-----------|-----------| 
B|--0-----0--|-----------|-----0-----|-----0--3--|
G|-----------|--2--------|--0-----0--|--2--------|
D|-----------|-----------|-----------|--4--------|
A|--3--------|--2--------|-----------|-----------|
E|-----------|-----------|--0--------|-----------|
  S'mo ga a-    da   yang  me- ne ra-  ngi si si

e|-----0-----|-----------|-----------|-----------| 
B|--0-----0--|-----------|-----0-----|--------3--|
G|-----------|--2--------|--0-----0--|-----0-----|
D|-----------|-----------|-----------|--4--------|
A|--3--------|--2--------|-----------|-----------|
E|-----------|-----------|--0--------|-----------|
   ge- lap  i-  ni    me-  nan ti  se- per ti p'la-

e|-----------|-----------|-----------|-----------| 
B|--1--------|--0--------|-----------|-----------|
G|-----------|-----------|--0--------|------0----|
D|-----------|-----------|---------0-|-0h2-----2-|
A|--3--------|--3--------|--3--------|-----------|
E|-----------|-----------|-----------|-----------|
   ngi         se-         tia    me-  nung gu hu-

e|-----------|-----------|-----------|-----------| 
B|--0--------|--3--------|-----------|-----------|
G|-----------|-----------|--0--------|-----------|
D|-----------|-----------|-----------|-----------|
A|--3--------|--3--------|--3--------|-----------|
E|-----------|-----------|-----------|-----------|
   jan         re-          da

[Chorus]
e|--0--0---0-|--0--0---0-|--0--0---0-|--0--0---0-| 
B|--0----0---|--0----0---|--0----0---|--0----0---|
G|--0----0---|--0----0---|--0----0---|--0----0---|
D|--2--------|--2--------|--2--------|--2--------|
A|--3--------|--3--------|--3--------|--3--------|
E|-----------|-----------|-----------|-----------|
    A-          ku        selalu      suka     se-

e|--3--3---3-|--3--3---3-|--3--3---3-|--3--3---3-|
B|--0----0---|--0----0---|--0----0---|--0----0---|
G|--0----0---|--0----0---|--0----0---|--0----0---|
D|--0--------|--0--------|--0--------|--0--------|
A|--2--------|--2--------|--2--------|--2--------|
E|--3--------|--3--------|--3--------|--3--------|
   Ha-         bis        Hujan    di  bulan   De-

e|--0--0---0-|--0--0---0-|--0--0---0-|--0--0---0-| 
B|--0----0---|--0----0---|--0----0---|--0----0---|
G|--0----0---|--0----0---|--0----0---|--0----0---|
D|--2--------|--2--------|--2--------|--2--------|
A|--3--------|--3--------|--3--------|--3--------|
E|-----------|-----------|-----------|-----------|
   se-      m  ber                di bulan  De se-

e|--2--2---2-|--2--2---2-|--2--------|-----------|
B|--3----3---|--3----3---|--3--------|-----------|
G|--4----4---|--4----4---|--4--------|-----------|
D|--4--------|--4--------|--4--------|-----------|
A|--2--------|--2--------|--2--------|-----------|
E|-----------|-----------|-----------|-----------|
                       m  ber

[Verse 3]
e|-----0-----|-----------|-----------|-----------| 
B|--0-----0--|-----------|-----0-----|-----0--3--|
G|-----------|--2--------|--0-----0--|--2--------|
D|-----------|-----------|-----------|--4--------|
A|--3--------|--2--------|-----------|-----------|
E|-----------|-----------|--0--------|-----------|
   S'lalu  a    da       yang bernya- nyi dan ber-

e|-----0-----|-----------|-----------|-----------| 
B|--0-----0--|-----------|-----0-----|-----0--3--|
G|-----------|--2--------|--0-----0--|--2--------|
D|-----------|-----------|-----------|--4--------|
A|--3--------|--2--------|-----------|-----------|
E|-----------|-----------|--0--------|-----------|
    e-    le    gi     di ba lik   a-  wan hitam

e|-----0-----|-----------|-----------|-----------| 
B|--0-----0--|-----------|-----0-----|-----0--3--|
G|-----------|--2--------|--0-----0--|--2--------|
D|-----------|-----------|-----------|--4--------|
A|--3--------|--2--------|-----------|-----------|
E|-----------|-----------|--0--------|-----------|
  S'mo ga a-    da   yang  me- ne ra-  ngi si si

e|-----0-----|-----------|-----------|-----------| 
B|--0-----0--|-----------|-----0-----|--------3--|
G|-----------|--2--------|--0-----0--|-----0-----|
D|-----------|-----------|-----------|--4--------|
A|--3--------|--2--------|-----------|-----------|
E|-----------|-----------|--0--------|-----------|
   ge- lap  i-  ni    me-  nan ti  se- per ti p'la-

e|-----------|-----------|-----------|-----------| 
B|--1--------|--0--------|-----------|-----------|
G|-----------|-----------|--0--------|------0----|
D|-----------|-----------|---------0-|-0h2-----2-|
A|--3--------|--3--------|--3--------|-----------|
E|-----------|-----------|-----------|-----------|
   ngi         se-         tia    me-  nung gu hu-

e|-----------|-----------|-----------|-----------| 
B|--0--------|--3--------|-----------|-----------|
G|-----------|-----------|--0--------|-----------|
D|-----------|-----------|-----------|-----------|
A|--3--------|--3--------|--3--------|-----------|
E|-----------|-----------|-----------|-----------|
   jan         re-          da

[Chorus]
e|--0---0--0-|--0---0--0-|--0---0--0-|--0---0--0-|
B|--1--1--1--|--1--1--1--|--1--1--1--|--1--1--1--|
G|--2--2--2--|--2--2--2--|--2--2--2--|--2--2--2--|
D|--3--------|--3--------|--3--------|--3--------|
A|--3--------|--3--------|--3--------|--3--------|
E|-----------|-----------|-----------|-----------|
    A-          ku        selalu      suka     se-

e|--0---0--0-|--0---0--0-|--0---0--0-|--0---0--0-|
B|--1--1--1--|--1--1--1--|--1--1--1--|--1--1--1--|
G|--0--0--0--|--0--0--0--|--0--0--0--|--0--0--0--|
D|--2--------|--2--------|--2--------|--2--------|
A|--3--------|--3--------|--3--------|--3--------|
E|-----------|-----------|-----------|-----------|
   Ha-         bis        Hujan    di  bulan   De-

e|--0---0--0-|--0---0--0-|--0---0--0-|--0---0--0-|
B|--1--1--1--|--1--1--1--|--1--1--1--|--1--1--1--|
G|--2--2--2--|--2--2--2--|--2--2--2--|--2--2--2--|
D|--3--------|--3--------|--3--------|--3--------|
A|--3--------|--3--------|--3--------|--3--------|
E|-----------|-----------|-----------|-----------|
   se-      m  ber                di bulan  De se-

e|--0---0--0-|--0---0--0-|--0---0--0-|--0---0--0-|
B|--0--0--0--|--0--0--0--|--0--0--0--|--0--0--0--|
G|--0--0--0--|--0--0--0--|--0--0--0--|--0--0--0--|
D|--2--------|--2--------|--2--------|--2--------|
A|--2--------|--2--------|--2--------|--2--------|
E|--0--------|--0--------|--0--------|--0--------|
                       m  ber

[Interlude]
e|-----------|--3--------|-----------|--3--------| 
B|--5-----5--|--------3--|--5-----5--|--------3--|
G|-----5-----|-----5-----|-----5-----|-----5-----|
D|--3--------|--3--------|--3--------|--3--------|
A|-----------|-----------|-----------|-----------|
E|-----------|-----------|-----------|-----------|

e|--0--------|--0--------|--0--------|--0--------|
B|-----0-----|-----0-----|-----0-----|-----0-----|
G|--------0--|--------0--|--------0--|--------0--|
D|---------2-|---------2-|---------2-|---------2-|
A|--3--------|--3--------|--3--------|--3--------|
E|-----------|-----------|-----------|-----------|

e|--5--------|--5--------|--5--------|--3--------| 
B|--------0--|--------0--|--------0--|--------4--|
G|-----5-----|-----5-----|-----5-----|-----5-----|
D|--3--------|--3--------|--3--------|--3--------|
A|-----------|-----------|-----------|-----------|
E|-----------|-----------|-----------|-----------|

e|--0--------|--0--------|--0--------|--0--------|
B|-----0-----|-----0-----|-----0-----|-----0-----|
G|--------0--|--------0--|--------0--|--------0--|
D|---------2-|---------2-|---------2-|---------2-|
A|--3--------|--3--------|--3--------|--3--------|
E|-----------|-----------|-----------|-----------|
                                          Sam pai

[Bridge]
e|-----------|--3--------|-----------|--3--------| 
B|--5-----5--|--------3--|--5-----5--|--------3--|
G|-----5-----|-----5-----|-----5-----|-----5-----|
D|--3--------|--3--------|--3--------|--3--------|
A|-----------|-----------|-----------|-----------|
E|-----------|-----------|-----------|-----------|
   Nan ti keti   ka     Hu jan tak la  gi mene-

e|--0--------|--0--------|--0--------|--0--------|
B|-----0-----|-----0-----|-----0-----|-----0-----|
G|--------0--|--------0--|--------0--|--------0--|
D|---------2-|---------2-|---------2-|---------2-|
A|--3--------|--3--------|--3--------|--3--------|
E|-----------|-----------|-----------|-----------|
 tes  kan  du  ka      me  re tas lu ka  sam pai hu-

e|--5--------|--5--------|--5--------|--3--------| 
B|--------0--|--------0--|--------0--|--------4--|
G|-----5-----|-----5-----|-----5-----|-----5-----|
D|--3--------|--3--------|--3--------|--3--------|
A|-----------|-----------|-----------|-----------|
E|-----------|-----------|-----------|-----------|
     jan    memu  lih-        kan              lu-

e|--0--------|--0--------|--0--------|--0--------|
B|-----0-----|-----0-----|-----0-----|-----0-----|
G|--------0--|--------0--|--------0--|--------0--|
D|---------2-|---------2-|---------2-|---------2-|
A|--3--------|--3--------|--3--------|--3--------|
E|-----------|-----------|-----------|-----------|
   ka

[Chorus]
e|--0---0--0-|--0---0--0-|--0---0--0-|--0---0--0-|
B|--1--1--1--|--1--1--1--|--1--1--1--|--1--1--1--|
G|--2--2--2--|--2--2--2--|--2--2--2--|--2--2--2--|
D|--3--------|--3--------|--3--------|--3--------|
A|--3--------|--3--------|--3--------|--3--------|
E|-----------|-----------|-----------|-----------|
    A-          ku        selalu      suka     se-

e|--0---0--0-|--0---0--0-|--0---0--0-|--0---0--0-|
B|--1--1--1--|--1--1--1--|--1--1--1--|--1--1--1--|
G|--0--0--0--|--0--0--0--|--0--0--0--|--0--0--0--|
D|--2--------|--2--------|--2--------|--2--------|
A|--3--------|--3--------|--3--------|--3--------|
E|-----------|-----------|-----------|-----------|
   Ha-         bis        Hujan    di  bulan   De-

e|--0---0--0-|--0---0--0-|--0---0--0-|--0---0--0-|
B|--1--1--1--|--1--1--1--|--1--1--1--|--1--1--1--|
G|--2--2--2--|--2--2--2--|--2--2--2--|--2--2--2--|
D|--3--------|--3--------|--3--------|--3--------|
A|--3--------|--3--------|--3--------|--3--------|
E|-----------|-----------|-----------|-----------|
   se-      m  ber                di bulan  De se-

e|--0---0--0-|--0---0--0-|--0---0--0-|--0---0--0-|
B|--0--0--0--|--0--0--0--|--0--0--0--|--0--0--0--|
G|--0--0--0--|--0--0--0--|--0--0--0--|--0--0--0--|
D|--2--------|--2--------|--2--------|--2--------|
A|--2--------|--2--------|--2--------|--2--------|
E|--0--------|--0--------|--0--------|--0--------|
                       m  ber             karna

e|--0---0--0-|--0---0--0-|--0---0--0-|--0---0--0-|
B|--1--1--1--|--1--1--1--|--1--1--1--|--1--1--1--|
G|--2--2--2--|--2--2--2--|--2--2--2--|--2--2--2--|
D|--3--------|--3--------|--3--------|--3--------|
A|--3--------|--3--------|--3--------|--3--------|
E|-----------|-----------|-----------|-----------|
    A-          ku        selalu      suka     se-

e|--0---0--0-|--0---0--0-|--0---0--0-|--0---0--0-|
B|--1--1--1--|--1--1--1--|--1--1--1--|--1--1--1--|
G|--0--0--0--|--0--0--0--|--0--0--0--|--0--0--0--|
D|--2--------|--2--------|--2--------|--2--------|
A|--3--------|--3--------|--3--------|--3--------|
E|-----------|-----------|-----------|-----------|
   Ha-         bis        Hujan    di  bulan   De-

e|--0---0--0-|--0---0--0-|--0---0--0-|--0---0--0-|
B|--1--1--1--|--1--1--1--|--1--1--1--|--1--1--1--|
G|--2--2--2--|--2--2--2--|--2--2--2--|--2--2--2--|
D|--3--------|--3--------|--3--------|--3--------|
A|--3--------|--3--------|--3--------|--3--------|
E|-----------|-----------|-----------|-----------|
   se-      m  ber                di bulan  De se-

e|--0---0--0-|--0---0--0-|--0---0--0-|--0---0--0-|
B|--0--0--0--|--0--0--0--|--0--0--0--|--0--0--0--|
G|--0--0--0--|--0--0--0--|--0--0--0--|--0--0--0--|
D|--2--------|--2--------|--2--------|--2--------|
A|--2--------|--2--------|--2--------|--2--------|
E|--0--------|--0--------|--0--------|--0--------|
                       m  ber         Seperti p'la-

[Outro]
e|--1--------|--0--------|-----------|-----------| 
B|-----------|-----------|--1--------|------1----|
G|-----------|-----------|---------0-|-0h2-----2-|
D|--3--------|--3--------|--3--------|-----------|
A|-----------|-----------|-----------|-----------|
E|-----------|-----------|-----------|-----------|
   ngi         se-         tia    me-  nung gu hu-

e|--0--------|--3--------|-----------|-----------| 
B|-----------|-----------|--1--------|-----------|
G|-----------|-----------|-----------|-----------|
D|--3--------|--3--------|--3--------|-----------|
A|-----------|-----------|-----------|-----------|
E|-----------|-----------|-----------|-----------|
   jan         re-          da              
Submit corrections

↑ Back to top | Tablatures and chords for acoustic guitar and electric guitar, ukulele, drums are parodies/interpretations of the original songs. You may use it for private study, scholarship, research or language learning purposes only