Home » E » Ed Sheeran »

Ed Sheeran - Give Me Love Bass

Artists:  A B C D E F G H I J K L M N O P Q R S T U V W X Y Z # 

Give Me Love Bass

(ver. 1) Click to play this song!
Ed Sheeran
Intro - No Bass
 
*Bass comes in @ 34 seconds*
 
Verse
G |----------------------------|
D |----------------------------| X4
A |--1~~~~--------------4~~~~--|
E |------------2~~~~-----------|
 
Pre Chorus
G |------------------------------------|
D |-----------------------------1~~~~--|
A |-----------4~~~~--------------------|
E |--2~~~~-------------4~~~~-----------|
 
G |-----|
D |-----|
A |-----|
E |--2--|
 
Chorus
G |---------------|---------------|
D |---------------|---------------| X4
A |--4----6-------|---------------|
E |------------2--|--2----2----2--|
 
Bridge - No Bass
 
Verse II
G |----------------------------|
D |----------------------------| X4
A |--1~~~~--------------4~~~~--|
E |------------2~~~~-----------|
 
Pre Chorus II
G |------------------------------------|
D |-----------------------------1~~~~--|
A |-----------4~~~~--------------------|
E |--2~~~~-------------4~~~~-----------|
 
G |-----|
D |-----|
A |-----|
E |--2--|
 
Chorus II
G |---------------|---------------|
D |---------------|---------------| X8
A |--4----6-------|---------------|
E |------------2--|--2----2----2--|
 
Bridge - No Bass
 
"Give Me Love, Love"
G |----------|---------|---------|----------|
D |----------|---------|---------|----------| X8
A |--1----1--|-1----1--|-1----1--|--4----4--|
E |----------|---------|---------|----------|
 
Ed sings and Guitar plays for the Outro
            
Submit corrections

↑ Back to top | Tablatures and chords for acoustic guitar and electric guitar, ukulele, drums are parodies/interpretations of the original songs. You may use it for private study, scholarship, research or language learning purposes only