» » »

Ed Sheeran - Blow Tabs

Artists:  A B C D E F G H I J K L M N O P Q R S T U V W X Y Z # 

Blow Tabs

(ver. 1) Click to play this song!
Ed Sheeran
 Rating:
4.4/5 (14 votes)

 Blow lessons Tabs too difficult? Try these video lessons and learn fast
 
                [Intro Riff]

D#|--------------------------------------------|
A#|--------------------------------------------|
F#|--------------------------------------------|    
C#|--------------------------------------------|
G#|------------5h7-------------5h7-----5-------|
D#|--12s0--0--0---0--0-5p3-0--0---5-6-7-7-6-5-3|

D#|--------------------------------------------|
A#|--------------------------------------------|
F#|--------------------------------------------| x3   
C#|--------------------------------------------|
G#|--------5h7-----------------5h7-----5-------|
D#|--0--0-0---0--0-0-5p3-0--0-0---5-6-7-7-6-5-3|

[Verse 1] (Ed Sheeran)

"You make me wanna make a baby, baby, uh"
D#|----------------------------------------------------------|
A#|----------------------------------------------------------|
F#|----------------------------------------------------------| 
C#|----------------------------------------------------------|
G#|-------5--------------5h7-----------------5h7-----5-------|
D#|--5-6-7-7-6-5-3-0--0-0---0--0-0-5p3-0--0-0---5-6-7-7-6-5-3|

D#|--------------------------------------------|
A#|--------------------------------------------|
F#|--------------------------------------------|    
C#|--------------------------------------------|
G#|--------5h7-----------------5h7-----5-------|
D#|--0--0-0---0--0-0-5p3-0--0-0---5-6-7-7-6-5-3|

[Verse 2] (Chris Stapleton)

"You got me down on my knees, begging please"

D#|---------------|
A#|---------------|
F#|---------------|    
C#|---------------|
G#|-------5-------|
D#|--5-6-7-7-6-5-3|

[Chorus]

D#|------------------------------------------------|
A#|------------------------------------------------|
F#|------------------------------------------------|    
C#|--5--5--5--5--5--5--5--5--7--7--7--7--7--7--7--7|
G#|--5--5--5--5--5--5--5--5--7--7--7--7--7--7--7--7|
D#|--3--3--3--3--3--3--3--3--5--5--5--5--5--5--5--5|

D#|--------------------------------------------|
A#|--------------------------------------------|
F#|--------------------------------------------|    
C#|--------------------------------------------|
G#|--------5h7-----------------5h7-----5-------|
D#|--0--0-0---0--0-0-5p3-0--0-0---5-6-7-7-6-5-3|

D#|-----------------------------------------------------------------|
A#|-----------------------------------------------------------------|
F#|-----------------------------------------------------------7-----|    
C#|--5--5--5--5--5--5--5--5--7--7--7--7--7--7--7--7--2--------7----7|
G#|--5--5--5--5--5--5--5--5--7--7--7--7--7--7--7--7--2--------5----7|
D#|--3--3--3--3--3--3--3--3--5--5--5--5--5--5--5--5--0-------------5|

D#|--------------------------------------------|
A#|--------------------------------------------|
F#|--------------------------------------------| x2   
C#|--------------------------------------------|
G#|--------5h7-----------------5h7-----5-------|
D#|--0--0-0---0--0-0-5p3-0--0-0---5-6-7-7-6-5-3|

[Verse 3] (Bruno Mars)

"Whipped cream, and everything in between, yeah"

D#|---------------|
A#|---------------|
F#|---------------|    
C#|---------------|
G#|-------5-------|
D#|--5-6-7-7-6-5-3|

[Chorus]

D#|------------------------------------------------|
A#|------------------------------------------------|
F#|------------------------------------------------|    
C#|--5--5--5--5--5--5--5--5--7--7--7--7--7--7--7--7|
G#|--5--5--5--5--5--5--5--5--7--7--7--7--7--7--7--7|
D#|--3--3--3--3--3--3--3--3--5--5--5--5--5--5--5--5|

D#|--------------------------------------------|
A#|--------------------------------------------|
F#|--------------------------------------------|    
C#|--------------------------------------------|
G#|--------5h7-----------------5h7-----5-------|
D#|--0--0-0---0--0-0-5p3-0--0-0---5-6-7-7-6-5-3|

D#|-----------------------------------------------------------------|
A#|-----------------------------------------------------------------|
F#|-----------------------------------------------------------7-----|    
C#|--5--5--5--5--5--5--5--5--7--7--7--7--7--7--7--7--2--------7----7|
G#|--5--5--5--5--5--5--5--5--7--7--7--7--7--7--7--7--2--------5----7|
D#|--3--3--3--3--3--3--3--3--5--5--5--5--5--5--5--5--0-------------5|


[Solo]

Chords

D#|-------------------------------------------------|
A#|-------------------------------------------------|
F#|-------------------------------------------------|     
C#|--2-2----2-2----5----7----2-2----2----5--5--2-5-7|
G#|--2-2----2-2----5----7----2-2----2----5--5--2-5-7|
D#|--0-0----0-0----3----5----0-0----0----3--3--0-3-5|

D#|--------------------------------------------|
A#|--------------------------------------------|
F#|--------------------------------------------| x2   
C#|--------------------------------------------|
G#|--------5h7-----------------5h7-----5-------|
D#|--0--0-0---0--0-0-5p3-0--0-0---5-6-7-7-6-5-3|


Guitar Solo

D#|--------15---------14----------------------------------------------------------------------|
A#|12-15-12---12-15-12----12-15-12-15b17r15------12-15-12-15b17r15----------------------------|
F#|----------------------------------------12---------------------12----12-14-12-14b16r14-12--|     
C#|------------------------------------------12---------------------12----------------------14|
G#|-------------------------------------------------------------------------------------------|
D#|-------------------------------------------------------------------------------------------|

D#|--------------------------------------------15-15-14-12--------------------------------------|
A#|--------15----------14---------------------------------15-14-12------------12-----------12-14|
F#|12-14-12---12-14-12----12-14-12-11--12-14-12-------------------15-14-12----14b16-14-12--12-14|     
C#|-----------------------------------------------------------------------14--------------------|
G#|---------------------------------------------------------------------------------------------|
D#|---------------------------------------------------------------------------------------------|

D#|----------------------------------------------------------------------------------------------------------|
A#|---------------------------------------------------------------------------------12--12-15-12-15--12-15b17|
F#|14b16r14--12-14--14b16r14-12b14r12-12--11-12-14-----------------11-12-14-11-12-14--14---------------------|
C#|------------------------------------------------11-12-14-11-12-14-----------------------------------------|
G#|----------------------------------------------------------------------------------------------------------|
D#|----------------------------------------------------------------------------------------------------------|

(The following part is played in the chorus)

D#|---------------------------------------------------------------------------------------------|
A#|----------------------------------------------------------14b15-14b15-14b15-14b15-14b15-15b17|
F#|12--11----------------------14b16-14b16-14b16-14b16-14b16------------------------------------| 
C#|-------14--12--11----------------------------------------------------------------------------|
G#|------------------14--12---------------------------------------------------------------------|
D#|---------------------------------------------------------------------------------------------|

D#|-----------------------|
A#|15-14s15s14-12---------|
F#|--------------14--12---| 
C#|---------------------14|
G#|-----------------------|
D#|-----------------------|

[Chorus]

D#|------------------------------------------------|
A#|------------------------------------------------|
F#|------------------------------------------------|    
C#|--5--5--5--5--5--5--5--5--7--7--7--7--7--7--7--7|
G#|--5--5--5--5--5--5--5--5--7--7--7--7--7--7--7--7|
D#|--3--3--3--3--3--3--3--3--5--5--5--5--5--5--5--5|

D#|--------------------------------------------|
A#|--------------------------------------------|
F#|--------------------------------------------|    
C#|--------------------------------------------|
G#|--------5h7-----------------5h7-----5-------|
D#|--0--0-0---0--0-0-5p3-0--0-0---5-6-7-7-6-5-3|

D#|-----------------------------------------------------------------|
A#|-----------------------------------------------------------------|
F#|-----------------------------------------------------------7-----|    
C#|--5--5--5--5--5--5--5--5--7--7--7--7--7--7--7--7--2--------7----7|
G#|--5--5--5--5--5--5--5--5--7--7--7--7--7--7--7--7--2--------5----7|
D#|--3--3--3--3--3--3--3--3--5--5--5--5--5--5--5--5--0-------------5|

[Outro]

D#|--------------------------------------|
A#|--------------------------------------|
F#|--------------------------------------|     
C#|--------------------------------------|
G#|------5h7-------------5h7-----5-------|
D#|--0------0----5p3-0------5-6-7-7-6-5-3|

D#|------------------------------------------------------------------------------------------|
A#|------------------------------------------------------------------------------------------|
F#|------------------------------------------------------------------------------------------|     
C#|-----------------------------------------------------------------------------------------2|
G#|------5h7-------------5h7-----5-------------5--------------5-----------------------------2|
D#|--0------0----5p3-0------5-6-7-7-6-5-3-5-6-7-7-6-5-3-5-6-7----7----6-----5------3--------0|

            
Submit corrections


        Blow lessons Hard to play? Try these video lessons and learn fast Blow lessons
        
↑ Back to top | Tablatures and chords for acoustic guitar and electric guitar, ukulele, drums are parodies/interpretations of the original songs. You may use it for private study, scholarship, research or language learning purposes only