Home » E » Eden Ahbez »

Eden Ahbez - Hey Ya Tabs

Artists:  A B C D E F G H I J K L M N O P Q R S T U V W X Y Z # 

Hey Ya Tabs

(ver. 1) Click to play this song!
Eden Ahbez
0:08

Git. 1
e|--------|----------|--------|--------|----------|--------|--------|----------|--------|---------|-----|
B|--------|----------|--------|--------|----------|--------|--------|----------|--------|---------|-----|
G|4---9---|----11-12-|------4-|--9-----|--11-12---|----4---|9-------|11-12-----|--4---9-|------11-|12---|
D|--------|----------|--------|--------|----------|--------|--------|----------|--------|---------|-----|
A|--------|----------|--------|--------|----------|--------|--------|----------|--------|---------|-----|
E|3---8---|----10-12-|------3-|--8-----|--10-12---|----3---|8-------|10-12-----|--3---8-|------10-|12---|


0:52

Git. 1
e|3-3-3-3-|3-3-3-3-|3-3-3-3-|3-3-3-3-|3-3-3-3-|3-5-7-7-|7-7-7-7-|10-10-10-10-|10-10-10-10-|10-12-12-14-|
B|--------|--------|--------|--------|--------|--------|--------|------------|------------|------------|
G|--------|--------|--------|--------|--------|--------|--------|------------|------------|------------|
D|--------|--------|--------|--------|--------|--------|--------|------------|------------|------------|
A|--------|--------|--------|--------|--------|--------|--------|------------|------------|------------|
E|--------|--------|--------|--------|--------|--------|--------|------------|------------|------------|

e|14-15-15-17-|19-19-19-19-|19-19-19-19-|19-19-20-19-|19-19-17-19-|19-19-19-19-|19-20-----|
B|------------|------------|------------|------------|------------|------------|----------|
G|------------|------------|------------|------------|------------|------------|----------|
D|------------|------------|------------|------------|------------|------------|----------|
A|------------|------------|------------|------------|------------|------------|----------|
E|------------|------------|------------|------------|------------|------------|----------|


Git. 2
e|------|------|--------|-----|------|----------|--------|-----|--------|--------|---------|
B|------|------|--------|-----|------|----------|--------|-----|--------|--------|---------|
G|------|------|--------|-----|------|----------|--------|-----|--------|--------|---------|
D|------|------|--------|-----|------|----------|--------|-----|--------|--------|---------|
A|------|------|--------|-----|------|----------|--------|-----|--------|--------|---------|
E|12----|3---8-|--10-12-|---3-|--8---|--10-12---|----3---|8----|10-12---|--3---8-|------10-|

e|---------|--------|----------|--------|--------|---------|
B|---------|--------|----------|--------|--------|---------|
G|---------|--------|----------|--------|--------|---------|
D|---------|--------|----------|--------|--------|---------|
A|---------|--------|----------|--------|--------|---------|
E|12-------|3---8---|----10-12-|------3-|--8-----|--10-----|


Git. 3
e|-----|-----|-----|-----|-----|-----|----------|------------|------------|------------|
B|-----|-----|-----|-----|-----|-----|----------|------------|------------|------------|
G|-----|-----|-----|-----|-----|-----|----12-12-|12-12-12-12-|12-12-12-12-|12-12-12-12-|
D|-----|-----|-----|-----|-----|-----|----------|------------|------------|------------|
A|-----|-----|-----|-----|-----|-----|----------|------------|------------|------------|
E|-----|-----|-----|-----|-----|-----|----------|------------|------------|------------|

e|------------|------------|------------|------------|------------|------------|-------|
B|------------|------------|------------|------------|------------|------------|-------|
G|12-12-12-12-|12-12-12-12-|12-12-12-12-|12-12-12-12-|12-12-12-12-|12-12-12-12-|12-12--|
D|------------|------------|------------|------------|------------|------------|-------|
A|------------|------------|------------|------------|------------|------------|-------|
E|------------|------------|------------|------------|------------|------------|-------|


2:04

Git. 1
e|---|-----|-----|------------|---------|---------|------------|--------|----------|-----------|
B|---|-----|-----|------------|---------|---------|------------|--------|----------|-----------|
G|---|-4---|9----|11-12----12-|12-4-4-9-|9-9-9-11-|12-12-12-12-|4-4-9-9-|9-9-11-12-|12-12-12-4-|
D|---|-----|-----|------------|---------|---------|------------|--------|----------|-----------|
A|---|-----|-----|------------|---------|---------|------------|--------|----------|-----------|
E|---|-3---|8----|10-12-12----|---3---8-|--8-8-10-|12-12-12-12-|3-3-8-8-|8-8-10-12-|12-12-12-3-|

e|--------|-----------|----------|--------|------------|---------|---------|------------|
B|--------|-----------|----------|--------|------------|---------|---------|------------|
G|4-9-9-9-|9-11-12-12-|12-12-4-4-|9-9-9-9-|11-12-12-12-|12-4-4-9-|9-9-9-11-|12-12-12-12-|
D|--------|-----------|----------|--------|------------|---------|---------|------------|
A|--------|-----------|----------|--------|------------|---------|---------|------------|
E|3-8-8-8-|8-10-12-12-|12-12-3-3-|8-8-8-8-|10-12-12-12-|12-3-3-8-|8-8-8-10-|12-12-12-12-|


Git. 2
e|---|---|---|---|---|--------|--------|--------|--------|--------|--------|--------|
B|---|---|---|---|---|--------|--------|--------|--------|--------|--------|--------|
G|---|---|---|---|---|--------|--------|--------|--------|--------|--------|--------|
D|---|---|---|---|---|--------|--------|--------|--------|--------|--------|--------|
A|---|---|---|---|---|--------|--------|--------|--------|--------|--------|--------|
E|---|---|---|---|---|--------|--------|--------|--------|--------|--------|--------|

e|15-17-19-19-|19-19-19-19-|19-19-19-19-|20-19-19-19-|17-19-19-19-|19-19-19-20-|
B|------------|------------|------------|------------|------------|------------|
G|------------|------------|------------|------------|------------|------------|
D|------------|------------|------------|------------|------------|------------|
A|------------|------------|------------|------------|------------|------------|
E|------------|------------|------------|------------|------------|------------|            
Submit corrections

↑ Back to top | Tablatures and chords for acoustic guitar and electric guitar, ukulele, drums are parodies/interpretations of the original songs. You may use it for private study, scholarship, research or language learning purposes only