Home » E » Eden Ahbez »

Eden Ahbez - Billie Jean Tabs

Artists:  A B C D E F G H I J K L M N O P Q R S T U V W X Y Z # 

Billie Jean Tabs

(ver. 1) Click to play this song!
Eden Ahbez
[Solo] 
e|---------------------------------------------------------------------------|
B|---------------------------------------------------------------------------|
G|---------------11----9----11-----------------------------------------------|
D|---/8----11--------------------8----11-----11b-----------------------------|
A|---------------------------------------------------------------------------|
E|---------------------------------------------------------------------------|

e|---------------------------------------------------------------------------|
B|---------------------------------------------------------------------------|
G|-------------------11----/13-----11-------10-----8------8--------\6--------|
D|---/8-----11---------------------------------------------------------------|
A|---------------------------------------------------------------------------|
E|---------------------------------------------------------------------------|
            
Submit corrections

↑ Back to top | Tablatures and chords for acoustic guitar and electric guitar, ukulele, drums are parodies/interpretations of the original songs. You may use it for private study, scholarship, research or language learning purposes only