Home » E » Eddie Vedder »

Eddie Vedder - Rise Ukulele

Artists:  A B C D E F G H I J K L M N O P Q R S T U V W X Y Z # 

Rise Ukulele

(ver. 1) Click to play this song!
Eddie Vedder
[C Alternative]
      C       [C2]     [C3]     [C5]
A|----3--------3--------3--------3------|
E|----0--------2--------3--------5------|
C|----0--------0--------0--------0------|
G|----0--------0--------0--------0------|
 
 [G*]
    [G]
A|------------0---------------2---------|
E|------------3---------------3---------|
C|------------2---------------2---------|
G|------------0---------------0---------|
 
 [D*]
    [D]
A|---------0-------------0--------------|
E|---------2-------------0--------------|
C|---------2-------------2--------------|
G|---------2-------------2--------------|
 
 
 
[Intro] Fingerpicking
 
    [G]
A|--------------2---------------------2-------|
E|--------3---3------3---3------3---3-------3-|
C|----------2----------2----------2------2----|   (X2)
G|--0-----------------------0-----------------|
   °           °           °         °
 
 
[Verse 1]
G *
Such is the way of the world
G *            C C2 C3 C2
You can never know
G *
Just where to put all your faith
G *               C C2 C3 C2
And how will it grow?
 
 
[Chorus]
 
G *
Gonna rise up
G *                          C C2 C3 C2
Burning black holes in dark memories
G *
Gonna rise up
G *                     C C2 C3 C2
Turning mistakes into gold
 
 
[Instrumental 1]
 
G *   D    C   C2  C3  C2  C   C2  C3  C2  (x2) (4 Beats Per Chord)
1234 1234  1   2   3   4   1   2   3   4
 
 
[Verse 2]
G *
Such is the passage of time
G *           C C2 C3 C2
Too fast to fold
G *
Suddenly swallowed by signs
G *       C C2 C3 C2
Lo and behold
 
 
[Chorus]
G *
Gonna rise up
G *                C C2 C3 C2
Find my direction magnetically
G *
Gonna rise up
G *                       C C2 C3 C5
Throw down my ace in the hole
 
 
[Instrumental 2]
 
D *   G *   C   C2   C3   C2 (x2) (2 Beats Per Chord)
1 2   3 4   1   2    3    4
 
G    Gsus2  G    Gsus2 (x2)
1 2  3 4    1 2  3 4
 
D   Dsus4    C   C2   C3   C2   G
1 2 3 4      1   2    3    4    1
            
Submit corrections

↑ Back to top | Tablatures and chords for acoustic guitar and electric guitar, ukulele, drums are parodies/interpretations of the original songs. You may use it for private study, scholarship, research or language learning purposes only