» » »

Eddie Meduza - Bonnatwist Chords

Artists:  A B C D E F G H I J K L M N O P Q R S T U V W X Y Z # 

Bonnatwist Chords

(ver. 1) Click to play this song!
Eddie Meduza
 Rating:
4.3/5 (24 votes)

 Bonnatwist lessons Tabs too difficult? Try these video lessons and learn fast
 
                [Intro]

e|-------------------|
B|-------------------|
G|---------0-2---0---|
D|-------2-----------| x3
A|---3---------------|
E|-------------------|


[Vers 1]
G C                             G                               C
    Här dansar bönder korta och långa, breda om röven stora och stronga
                            F      G                 C
Festen på vysstan blir inte trist, för här dansar vi twist,
                           G                                   C
Twisten blev ute för länge sennu men här på vysstan dansas den ännu
                            F     G                 C
Bönderna hoppar, vrålar och gnyr, så att skiten den yr,


[Refräng]
            G
Bonnatwist, bonnatwist
                    C
Här dansar bönderna bonnatwist
            G
Bonnatwist, bonnatwist
                    C
Här dansar bönderna twist,
            G
Bonnatwist, bonnatwist
                    C
Här dansar bönderna bonnatwist
            G
Bonnatwist, bonnatwist
                    C
Här dansar bönderna twist


[Vers 2]
                       G                                    C
Inne i stior lador och logar, gläntor och dungar, vikar och skogar
                             F        G                C
Flänger det bönder runt i en ring, så skiten stänker omkring
                        G                                     C
Ute i mossan dyngan och löven, far vi omkring och slänger med röven
                             F     G                C
Hoppar och fäktar flaxar och slår, bonnatwisten den gååår!


[Refräng]
            G
Bonnatwist, bonnatwist
                    C
Här dansar bönderna bonnatwist
            G
Bonnatwist, bonnatwist
                    C
Här dansar bönderna twist, JA!
            G
Bonnatwist, bonnatwist
                    C
Här dansar bönderna bonnatwist
            G
Bonnatwist, bonnatwist
                    C
Här dansar bönderna twist

Shake!


[Solo]

e|-------------------|-------------------|-------------------|-------------------|
B|-------------------|-------------------|-------------------|-------------------|
G|---------0-2---0---|-----------0-------|-----------0-------|-----------0-------|
D|-------2-----------|-------2-3-----3---|-------2-3-----3---|-------2-3-----3---|
A|---3---------------|---3---------------|---2---------------|---2---------------|
E|-------------------|-------------------|-------------------|-------------------|

e|-------------------|-------------------|-------------------|-------------------|
B|-------------------|-------------------|-------------------|-------------------|
G|---------0-2---0---|-----------0-------|-----------0-------|-0--0--0-----------|
D|-------2-----------|-------2-3-----3---|-------2-3---------|---------2-0-------|
A|---3---------------|---3---------------|---3---------------|---------------3---|
E|-------------------|-------------------|-------------------|-------------------|


[Refräng]
C           G
Bonnatwist, bonnatwist
                    C
Här dansar bönderna bonnatwist
            G
Bonnatwist, bonnatwist
                    C
Här dansar bönderna twist
            G
Bonnatwist, bonnatwist
                    C
Här dansar bönderna bonnatwist
            G
Bonnatwist, bonnatwist
                    C
Här dansar bönderna twist!


[Outro]

e|-------------------|
B|-------------------|
G|---------0-2---0---|
D|-------2-----------| x3
A|---3---------------|
E|-------------------|

C C C C
            
Submit corrections


        Bonnatwist lessons Hard to play? Try these video lessons and learn fast Bonnatwist lessons
        
↑ Back to top | Tablatures and chords for acoustic guitar and electric guitar, ukulele, drums are parodies/interpretations of the original songs. You may use it for private study, scholarship, research or language learning purposes only