Home » E » Eddie Harris »

Eddie Harris - Cold Duck Time Tabs

Artists:  A B C D E F G H I J K L M N O P Q R S T U V W X Y Z # 

Cold Duck Time Tabs

(ver. 1) Click to play this song!
Eddie Harris
Tuning: Standard

              F7                Bb7               F7                Bb7
e|-----------|-----------------|-----------------|-----------------|---------------|
B|-----------|-----------------|-----------------|-------1---------|---------------|
G|---------1-|-----------------|---------------1-|---3-----1-------|-------------1-|
D|---1-3-3---|---------1-3-3---|---------1-3-3---|-------------3-1-|-3-----1-3-3---|
A|-3---------|-------3---------|-------3---------|-----------------|-----3---------|
E|-----------|---------------4-|-----------------|-----------------|---------------|


  F7                Bb7               F7                Bb7
e|-----------------|-----------------|-----------------|---------------|
B|-----------------|-----------------|-------1---------|---------------|
G|-----------------|---------------1-|---3-----1-------|-------------1-|
D|---------1-3-3---|---------1-3-3---|-------------3-1-|-3-----1-3-3---|
A|-------3---------|-------3---------|-----------------|-----3---------|
E|---------------4-|-----------------|-----------------|---------------|

  
  Dbmaj7            Eb(add 9)      F7
e|-----------------|-----------------|-----------------|---------------|
B|-----------------|-----------------|-----------------|---------------|
G|-----------------|-----------------|-----------------|---------------|
D|---------------3-|---------------3-|-----------------|---------------|
A|-----------------|-----------------|-----------------|---------------|
E|-----------------|-----------------|-----------------|---------------|

            
Submit corrections

↑ Back to top | Tablatures and chords for acoustic guitar and electric guitar, ukulele, drums are parodies/interpretations of the original songs. You may use it for private study, scholarship, research or language learning purposes only