Home » E » Echosmith »

Echosmith - Terminal Tabs

Artists:  A B C D E F G H I J K L M N O P Q R S T U V W X Y Z # 

Terminal Tabs

(ver. 1) Click to play this song!
Echosmith
e|---11-12-11-9--------11-12-11-9--------11-12-11-9--------------------------| Intro x3  
B|--------------12-9--------------12-9--------------12-9---------------------|
G|---------------------------------------------------------------------------|
D|---------------------------------------------------------------------------|
A|---------------------------------------------------------------------------|
E|---------------------------------------------------------------------------|

e|-------7-4-----------------------------------------------------------------| Verse 1 
B|-------------5-7-5-7-5-7-9-7-9-7---4-5-4-2-0-------------------------------|
G|---4-4---------------------------------------1-----------------------------| A girl cries out,a little 
D|---------------------------------------------------------------------------| louder than she needed to 
A|---------------------------------------------------------------------------|
E|---------------------------------------------------------------------------|

e|-------7-4-----------------------------------------------------------------| Verse 1 
B|-------------5-7-5-7-9-7---4-5-4-2-0---------------------------------------|
G|---4-4-------------------------------1-------------------------------------| She hasn't seen,her dad in 
D|---------------------------------------------------------------------------| quite a while 
A|---------------------------------------------------------------------------|
E|---------------------------------------------------------------------------|

e|-------7-4-2---------------------------------------------------------------| Verse 1 
B|---------------5-7\5-7-9-7---4-5-4-2-0-------------------------------------|
G|---4-4---------------------------------1-----------------------------------| A finger painting,she made 
D|---------------------------------------------------------------------------| just for him 
A|---------------------------------------------------------------------------|
E|---------------------------------------------------------------------------|

e|-------7-4-2---------------------------------------------------------------| Verse 1 
B|---------------5-7-5-7-9-7-5-7-5-2---7-7-7-5-5-4-2-0-1---4-5-4-2-0---------|
G|---4-4-------------------------------------------------------------1-------| Oh,she's been waiting,she 
D|---------------------------------------------------------------------------| doesn't care just where 
A|---------------------------------------------------------------------------| he's been/She just wants him 
E|---------------------------------------------------------------------------| home

e|---------2/4-4-------------------------------------------------------------| Chorus 
B|---5-------------5-5-5-5-5-----5/7-7---------------------------------------|
G|-----4-4-------------------4-4---------------------------------------------| At a terminal,we're all 
D|---------------------------------------------------------------------------| waiting at a terminal 
A|---------------------------------------------------------------------------|
E|---------------------------------------------------------------------------|

e|-----------------2/4-4-----2-2-2-2-4-2-0-----2-4-2-0-----------------------| Chorus 
B|-----5-5-5-5-----------------------------2-----------2-5-------------------|
G|---4---------4-4---------4-------------------------------------------------| It's been so long since I've
D|---------------------------------------------------------------------------| held you close/So meet me 
A|---------------------------------------------------------------------------| here at a terminal,at a 
E|---------------------------------------------------------------------------| terminal,ooh 

e|---12-11-9--------11-12-11-9-----------------------------------------------| Bridge 
B|-----------12-9--------------12-9------------------------------------------|
G|---------------------------------------------------------------------------|
D|---------------------------------------------------------------------------|
A|---------------------------------------------------------------------------|
E|---------------------------------------------------------------------------|

e|-------7-4-------------------------------7-4-2-----------------------------| Verse 2 
B|-------------5-7-5-7-5-7-9-7-9-7---5-5-----------5-7-5-7-9-7-5-2-----------|
G|---4-4---------------------------------4-----------------------------------| A wedding ring,she's slowly
D|---------------------------------------------------------------------------| thinking it don't mean a 
A|---------------------------------------------------------------------------| thing/She says,if he loved
E|---------------------------------------------------------------------------| me,he wouldn't chose her over
                                                                               me 
          
e|-------------7-4---------------------------7-4-2---------------------------| Verse 2 
B|---5-5-5-------------7-7-9-7-5-7-5-2---------------7-5-7-5-7-9-7-----------|
G|---------4-4-------4-------------------4-4---------------------------------| Mom and Dad I'm coming home,
D|---------------------------------------------------------------------------| she cries out,give me a place
A|---------------------------------------------------------------------------| I know/Familiar faces,as she 
E|---------------------------------------------------------------------------| runs into their arms 

e|---------------------------------------------------------------------------| Verse 2 
B|---7-7-7-5-5-4-2-0-----4-5-4-2-0-------------------------------------------|
G|-------------------1-------------1-----------------------------------------| They just want her home 
D|---------------------------------------------------------------------------|
A|---------------------------------------------------------------------------|
E|---------------------------------------------------------------------------|

e|---------2/4-4-------------------------------------------------------------| Chorus Extended 
B|---5-------------5-5-5-5-5-----5/7-7---------------------------------------|
G|-----4-4-------------------4-4---------------------------------------------| At a terminal,we're all 
D|---------------------------------------------------------------------------| waiting at a terminal 
A|---------------------------------------------------------------------------|
E|---------------------------------------------------------------------------|

e|-----------------2/4-4-----2-2-2-2-4-2-0-----------------------------------| Chorus Extended 
B|-----5-5-5-5-----------------------------2---------------------------------|
G|---4---------4-4---------4-------------------------------------------------| It's been so long since I've
D|---------------------------------------------------------------------------| held you close/So meet me 
A|---------------------------------------------------------------------------| here at a terminal,at a 
E|---------------------------------------------------------------------------| terminal

e|---------2/4-4---------------------------------------2/4-4-----------------| Chorus Extended
B|---5-------------5-5-5-5-5-----5/7-7-----5-5-5-5---------------------------|
G|-----4-4-------------------4-4---------4---------4-4-----------------------| At a terminal,love is kind 
D|---------------------------------------------------------------------------| but it don't play by rules/
A|---------------------------------------------------------------------------| I'm waiting here cause I 
E|---------------------------------------------------------------------------| wanted to 

e|-----2-2-2-2-4-2-0-----2-4-2-0---------------------------------------------| Chorus Extended  
B|-------------------2-----------2-5-----------------------------------------|
G|---4-----------------------------------------------------------------------| So meet me here at a terminal,
D|---------------------------------------------------------------------------| at a terminal,ooh 
A|---------------------------------------------------------------------------|
E|---------------------------------------------------------------------------| 

e|-------4-------2-------0---7-9---------------------------------------------| Bridge x2 
B|---0-2-----0-2-----0-2---------9-7-----------------------------------------|
G|---------------------------------------------------------------------------| Ooh/Ooh/Ooh/Ooh 
D|---------------------------------------------------------------------------|
A|---------------------------------------------------------------------------|
E|---------------------------------------------------------------------------|

e|---------------------------2h4-2-0-------5-4-4-----------------------------| Verse 3 
B|---9-7-5-4-------------------------4-0-------------------------------------|
G|-----------4---2-1-2-1-2-1-------------------------------------------------| Come here beside me/You've
D|---------------------------------------------------------------------------| been gone for quite a while 
A|---------------------------------------------------------------------------| why don't we see,where we 
E|---------------------------------------------------------------------------| go

e|---4-2-0-------------------2h4-2-0-----------------------------------------| Verse 3 
B|---------4-0-----------------------4-0-------------------------------------|
G|---------------2-1-2-1-2-1---------------2-1-1-----------------------------| Come here beside me/You've
D|---------------------------------------------------------------------------| been gone for quite a while 
A|---------------------------------------------------------------------------| why don't we see,where we 
E|---------------------------------------------------------------------------| go/Where we go 

e|---------2/4-4-------------------------------------------------------------| Chorus Extended 
B|---5-------------5-5-5-5-5-----5/7-7---------------------------------------|
G|-----4-4-------------------4-4---------------------------------------------| At a terminal,we're all 
D|---------------------------------------------------------------------------| waiting at a terminal 
A|---------------------------------------------------------------------------|
E|---------------------------------------------------------------------------|

e|-----------------2/4-4-----2-2-2-2-4-2-0-----------------------------------| Chorus Extended 
B|-----5-5-5-5-----------------------------2---------------------------------|
G|---4---------4-4---------4-------------------------------------------------| It's been so long since I've
D|---------------------------------------------------------------------------| held you close/So meet me 
A|---------------------------------------------------------------------------| here at a terminal,at a 
E|---------------------------------------------------------------------------| terminal

e|---------2/4-4---------------------------------------2/4-4-----------------| Chorus Extended
B|---5-------------5-5-5-5-5-----5/7-7-----5-5-5-5---------------------------|
G|-----4-4-------------------4-4---------4---------4-4-----------------------| At a terminal,love is kind 
D|---------------------------------------------------------------------------| but it don't play by rules/
A|---------------------------------------------------------------------------| I'm waiting here cause I 
E|---------------------------------------------------------------------------| wanted to 

e|-----2-2-2-2-4-2-0-----2-4-2-0---------------------------------------------| Chorus Extended  
B|-------------------2-----------2-5-----------------------------------------|
G|---4-----------------------------------------------------------------------| So meet me here at a terminal,
D|---------------------------------------------------------------------------| at a terminal,ooh 
A|---------------------------------------------------------------------------|
E|---------------------------------------------------------------------------| 

e|-------4-------2-------0---7-9---------------------------------------------| Bridge x2 
B|---0-2-----0-2-----0-2---------9-7-----------------------------------------|
G|---------------------------------------------------------------------------| Ooh/Ooh/Ooh/Ooh 
D|---------------------------------------------------------------------------|
A|---------------------------------------------------------------------------|
E|---------------------------------------------------------------------------|

e|---11-12-11-9--------11-12-11-9--------11-12-11-9--------11-12-11-9--------| Final   
B|--------------12-9--------------12-9--------------12-9--------------12-9---|
G|---------------------------------------------------------------------------|
D|---------------------------------------------------------------------------|
A|---------------------------------------------------------------------------|
E|---------------------------------------------------------------------------|            
Submit corrections

↑ Back to top | Tablatures and chords for acoustic guitar and electric guitar, ukulele, drums are parodies/interpretations of the original songs. You may use it for private study, scholarship, research or language learning purposes only