Home » E » Echosmith »

Echosmith - Talking Dreams Bass

Artists:  A B C D E F G H I J K L M N O P Q R S T U V W X Y Z # 

Talking Dreams Bass

(ver. 1) Click to play this song!
Echosmith
0:03-0:15)

G|-------|-----------------------|-----------------------|
D|-------|------------6----------|------------6-----9----| (Play x2)
A|--9\2--|------7-7-9---9-7------|--0---7-7-9---9-7---9--|
E|-------|--0---------------9-7--|-----------------------|


(0:16-0:41)

G|---------------------------|---------------------------|-------------------|-------------------|
D|---------------------------|---------------------------|-------------------|-------------------| (Play x3)
A|---------------------------|---------------------------|-------------------|-------------------|
E|--12-12-12-12-12-12-12-12--|--12-12-12-12-12-12-12-12--|--5-5-5-5-5-5-5-5--|--5-5-5-5-5-5-5-5--|

G|---------------------------|---------------------------|-------------------|-------------------|
D|---------------------------|---------------------------|-------------------|-------------------| 
A|---------------------------|---------------------------|-------------------|-------------------|
E|--12-12-12-12-12-12-12-12--|--12-12-12-12-12-14-14-12--|--5-5-5-5-5-5-5-5--|--5-5-5-5-5-5-5-5--|


(0:42-0:54)

G|-----------------------|-----------------------|
D|------------6----------|------------6-----9----| (Play x2)
A|------7-7-9---9-7------|--0---7-7-9---9-7---9--|
E|--0---------------9-7--|-----------------------|


(0:54-1:07)

G|---------------------------|---------------------------|-------------------|-------------------|
D|---------------------------|---------------------------|-------------------|-------------------| (Play x2)
A|---------------------------|---------------------------|-------------------|-------------------|
E|--12-12-12-12-12-12-12-12--|--12-12-12-12-12-12-12-12--|--5-5-5-5-5-5-5-5--|--5-5-5-5-5-5-5-5--|


(1:07-1:19)

G|-----------------------|-----------------------|
D|------------6----------|------------6-----9----| (Play x2)
A|------7-7-9---9-7------|--0---7-7-9---9-7---9--|
E|--0---------------9-7--|-----------------------|


(1:28-1:45)

G|------8------|------------|----------8------|------------|----------8------|------------|
D|--9-6---9-6--|------------|------9-6---9-6--|------------|------9-6---9-6--|------------|
A|-------------|--7------9--|--0--------------|--7------9--|--0--------------|--7------9--|
E|-------------|------------|-----------------|------------|-----------------|------------|


(1:45-2:11)

G|---------------------------|---------------------------|-------------------|-------------------|
D|---------------------------|---------------------------|-------------------|-------------------| (Play x2)
A|---------------------------|---------------------------|-------------------|-------------------|
E|--12-12-12-12-12-12-12-12--|--12-12-12-12-12-12-12-12--|--5-5-5-5-5-5-5-5--|--5-5-5-5-5-5-5-5--|

G|---------------------------|-------------------------|-------------------|------------------------|
D|---------------------------|-------------------------|-------------------|------------------------|
A|---------------------------|-------------------------|-------------------|------------------------|
E|--12-12-12-12-12-12-12-12--|--12-12-12-14-14-12-9-7--|--5-5-5-5-5-5-5-5--|--5-7-9-12-14-16-19-16--|

G|---------------------------|---------------------------|-------------------|-------------------|
D|---------------------------|---------------------------|-------------------|-------------------| 
A|---------------------------|---------------------------|-------------------|-------------------|
E|--12-12-12-12-12-12-12-12--|--12-12-12-12-12-14-14-14--|--5-5-5-5-5-5-5-5--|--5-5-5-5-5-5-5-5--|


(2:11-2:36)

G|---------------------------|---------------------------|-------------------|-------------------|
D|---------------------------|---------------------------|-------------------|-------------------| (Play x2)
A|---------------------------|---------------------------|-------------------|-------------------|         
E|--12-12-12-12-12-12-12-12--|--12-12-12-12-12-12-12-12--|--5-5-5-5-5-5-5-5--|--5-5-5-5-5-5-5-5--|

G|---------------------------|---------------------------|-------------------|-------------------| (Play x2)
D|---------------------------|---------------------------|-------------------|-------------------| 
A|---------------------------|---------------------------|-------------------|-------------------|
E|--12-12-12-12-12-12-12-12--|--12-12-12-12-12-14-14-12--|--5-5-5-5-5-5-5-5--|--5-5-5-5-5-5-5-5--|


(2:37-End)

G|-----------------------|-----------------------|
D|------------6----------|------------6-----9----| (Play x4)
A|------7-7-9---9-7------|--0---7-7-9---9-7---9--|
E|--0---------------9-7--|-----------------------|

G|---------|
D|---------|
A|---------|
E|--0------|            
Submit corrections

↑ Back to top | Tablatures and chords for acoustic guitar and electric guitar, ukulele, drums are parodies/interpretations of the original songs. You may use it for private study, scholarship, research or language learning purposes only