Home » E » Echosmith »

Echosmith - Ran Off In The Night Tabs

Artists:  A B C D E F G H I J K L M N O P Q R S T U V W X Y Z # 

Ran Off In The Night Tabs

(ver. 1) Click to play this song!
Echosmith
Tuning:Standard 


e|-------------------------------------5-5-5-5-3-3---------------------------| Intro x2 
B|-------------6-6-6-6-5-5---------------------------------------------------|
G|---5-5-5-5-5---------------5-5-5-5-5---------------------------------------| Won't you come run away with 
D|---------------------------------------------------------------------------| me won't you come/Won't you 
A|---------------------------------------------------------------------------| come run away with me won't
E|---------------------------------------------------------------------------| you come 

e|---------------------------------------------------------------------------| Intro x2  
B|-------------6-6-6-6-5-5-3-1-----------------------------------------------|  
G|---5-5-5-5-5---------------------------------------------------------------| Won't you come run away with 
D|---------------------------------------------------------------------------| me won't you come away 
A|---------------------------------------------------------------------------|
E|---------------------------------------------------------------------------|

e|---------------------------15-15-17-17-------------------------------------| Intro 
B|---15-15-15-15-15-15-15-15-------------15-15-15-17-------------------------|
G|---------------------------------------------------------------------------|
D|---------------------------------------------------------------------------|
A|---------------------------------------------------------------------------|
E|---------------------------------------------------------------------------|

e|---------------------------------------------------------------------------| Intro 
B|------17----17----17----17----17----17----17----17-------------------------|
G|---17----17----17----17----17----17----17----17----17----------------------|
D|---------------------------------------------------------------------------|
A|---------------------------------------------------------------------------|
E|---------------------------------------------------------------------------|

e|---15-15-17-17------------------12------------12---------------------------| Intro  
B|---------------15-15-15-13---13----13---13-13----13------------------------|
G|---------------------------------------------------------------------------| 
D|---------------------------------------------------------------------------|
A|---------------------------------------------------------------------------|
E|---------------------------------------------------------------------------|

e|-------3-5-------------------3-5-----------------3-5-----------------------| Verse 1 
B|-----------3-3-5-----------------3-3-----------------3-3-5-----------------|
G|---5-5-------------5-5---5-5-----------2-2---5-5-------------5-5-----------| They were made for each other/
D|---------------------------------------------------------------------------| It was love at first sight/
A|---------------------------------------------------------------------------| They were caught in the 
E|---------------------------------------------------------------------------| moment 

e|---------3-5-----------------3-0-------------------------------------------| Verse 1 
B|-------------3-3-------------------3-3-3-3-1-3-----------------------------|
G|---5-5-5-----------2-2---5-5-----------------------------------------------| It was the end of the night/
D|---------------------------------------------------------------------------| Ooh they're walking,on such
A|---------------------------------------------------------------------------| delicate ropes
E|---------------------------------------------------------------------------|

e|-----3-0---------------------------3-5-------------3-5---------------------| Verse 1 
B|---1-------3-3-3-3-3-1-3/5\3-----------3-3-5-----------3-3---5-5-6-5-------|
G|-------------------------------5-5-------------5-5-------------------5-----| Ooh they're talking,of running
D|---------------------------------------------------------------------------| off to the coast/They were 
A|---------------------------------------------------------------------------| made for each other/They ran
E|---------------------------------------------------------------------------| off in the night/Ooh,she said
                                                                               to him 
                                    
e|-------------------------------------5-5-5-5-3-3---------------------------| Chorus x2 
B|-------------6-6-6-6-5-5---------------------------------------------------|
G|---5-5-5-5-5---------------5-5-5-5-5---------------------------------------| Won't you come run away with 
D|---------------------------------------------------------------------------| me won't you come/Won't you 
A|---------------------------------------------------------------------------| come run away with me won't
E|---------------------------------------------------------------------------| you come 

e|-------------------------------|---3-5-0---| (2nd block first                Chorus x2  
B|-------------6-6-6-6-5-5-3-1---|-----------|  time only)
G|---5-5-5-5-5-------------------|-----------|                                Won't you come run away with 
D|-------------------------------|-----------|  Woah                          me won't you come away 
A|-------------------------------|-----------|
E|-------------------------------|-----------|

e|-------3-5-----------------3-5---------------3-5---------------------------| Verse 2 
B|-----------3-3-5---------------3-3---------------3-3-5\3\1-----------------|
G|---5-5-------------5-5---5-----------2-2---5-------------------------------| They were made for each other/
D|---------------------------------------------------------------------------| They knew it was right/
A|---------------------------------------------------------------------------| So sick of this ghost town 
E|---------------------------------------------------------------------------|

e|---------3-5---------------------------------------------------------------| Verse 2 
B|---1-1-1-----3-3---5-5-6-5-------------------------------------------------|
G|---------------------------5-----------------------------------------------| So they ran off in the night/
D|---------------------------------------------------------------------------| Ooh,she said to him
A|---------------------------------------------------------------------------|
E|---------------------------------------------------------------------------|

e|-------------------------------------5-5-5-5-3-3---------------------------| Chorus x2 
B|-------------6-6-6-6-5-5---------------------------------------------------|
G|---5-5-5-5-5---------------5-5-5-5-5---------------------------------------| Won't you come run away with 
D|---------------------------------------------------------------------------| me won't you come/Won't you 
A|---------------------------------------------------------------------------| come run away with me won't
E|---------------------------------------------------------------------------| you come 

e|-------------------------------|---3-5-0---| (2nd block first                Chorus x2  
B|-------------6-6-6-6-5-5-3-1---|-----------|  time only)
G|---5-5-5-5-5-------------------|-----------|                                Won't you come run away with 
D|-------------------------------|-----------|  Woah                          me won't you come away 
A|-------------------------------|-----------|
E|-------------------------------|-----------|

e|-----3-0-----------------3h5-0---------------------------------------------| Verse 3 
B|-----------3-3-3-1-3-------------3-3-3-3-1-3/5\3---------------------------|
G|---5-------------------5---------------------------------------------------| They're chasing,the sun and
D|---------------------------------------------------------------------------| it's light/They're racing,
A|---------------------------------------------------------------------------| running all the red lights 
E|---------------------------------------------------------------------------|

e|-----3-0-------------------3/5-0---3-3/5-----------------------------------| Verse 3 
B|-----------3-3-3-1-3---------------------5\3-------------------------------|
G|---5-------------------5-5-------------------------------------------------| They're placing,their trust 
D|---------------------------------------------------------------------------| in the night/They're now
A|---------------------------------------------------------------------------| waiting,now waiting
E|---------------------------------------------------------------------------|

e|-------------------------------------5-5-5-5-3-3---------------------------| Chorus x4 
B|-------------6-6-6-6-5-5---------------------------------------------------|
G|---5-5-5-5-5---------------5-5-5-5-5---------------------------------------| Won't you come run away with 
D|---------------------------------------------------------------------------| me won't you come/Won't you 
A|---------------------------------------------------------------------------| come run away with me won't
E|---------------------------------------------------------------------------| you come 

e|-------------------------------|---3-5-0---| (2nd block first                Chorus x4  
B|-------------6-6-6-6-5-5-3-1---|-----------|  time only)
G|---5-5-5-5-5-------------------|-----------|                                 Won't you come run away with 
D|-------------------------------|-----------|  Woah                           me won't you come away 
A|-------------------------------|-----------|
E|-------------------------------|-----------| 

e|---------------------------------------------------------------------------| Final 
B|---3-5-6-5-3---------------------------------------------------------------|
G|-------------5-------------------------------------------------------------| Won't you come run away 
D|---------------------------------------------------------------------------|
A|---------------------------------------------------------------------------|
E|---------------------------------------------------------------------------|            
Submit corrections

↑ Back to top | Tablatures and chords for acoustic guitar and electric guitar, ukulele, drums are parodies/interpretations of the original songs. You may use it for private study, scholarship, research or language learning purposes only