Home » E » Echosmith »

Echosmith - Over My Head Bass

Artists:  A B C D E F G H I J K L M N O P Q R S T U V W X Y Z # 

Over My Head Bass

(ver. 1) Click to play this song!
Echosmith
[Intro] (0:00-0:18) 

G|----------------|----------------|----------------|-----------------|
D|----------------|----------------|----------------|-----------------|
A|----------------|----------------|----------------|-----------------|
E|----------------|----------------|----------------|-----------------|
  1 & 2 & 3 & 4 &  1 & 2 & 3 & 4 &  1 & 2 & 3 & 4 &  1 & 2 & 3 & 4 & 

G|----------------|----------------|----------------|-----------------|
D|----------------|----------------|----------------|----------9-9/11\|
A|----------------|----------------|----------------|----4/9-12-------|
E|----------------|----------------|----------------|-----------------|
  1 & 2 & 3 & 4 &  1 & 2 & 3 & 4 &  1 & 2 & 3 & 4 &  1 & 2 & 3 & 4 & 


[Verse 1] (0:18-0:36) 

G|----------------|----------------|----------------|-----------------|
D|----------------|----------------|----------------|----------9-9/11\| x2
A|5-----5-----4---|----------2/4/9\|5-----5-----4---|------9-12-------|
E|--------5-7---2-|----------------|--------5-7---2-|-----------------|
  1 & 2 & 3 & 4 &  1 & 2 & 3 & 4 &  1 & 2 & 3 & 4 &  1 & 2 & 3 & 4 &


[Pre-chorus] (0:36-0:45)

G|----------------|----------------|----------------|-----------------|
D|----------------|-----4/11-9---11|----------------|-----------------|
A|5-----5-----4---|------------12--|5-----5-------4-|------------16\4-|
E|--------5-7---2-|----------------|--------5-7-5---|-----------------|
  1 & 2 & 3 & 4 &  1 & 2 & 3 & 4 &  1 & 2 & 3 & 4 &  1 & 2 & 3 & 4 &


[Chorus] (0:45-1:12) 

G|----------------|----------------|----------------|-----------------|
D|----------------|----------------|----------------|----------9-9/11\| x3
A|5-----5-----4---|----------2/4/9\|5-----5-----4---|------9-12-------|
E|--------5-7---2-|----------------|--------5-7---2-|-----------------|
  1 & 2 & 3 & 4 &  1 & 2 & 3 & 4 &  1 & 2 & 3 & 4 &  1 & 2 & 3 & 4 &


[Verse 2] (1:12-1:31) 

G|----------------|----------------|----------------|-----------------|
D|----------------|----------------|----------------|----------9-9/11\| 
A|5-----5-4---2---|----------2/4/9\|5-----5-----4---|------9-12-------|
E|----------5---2-|----------------|--------5-7---2-|-----------------|
  1 & 2 & 3 & 4 &  1 & 2 & 3 & 4 &  1 & 2 & 3 & 4 &  1 & 2 & 3 & 4 &

G|----------------|----------------|----------------|-----------------|
D|----------------|----------------|----------------|----------9-9/11\| 
A|5-----5-----4---|----------2/4/9\|5-----5-----4---|------9-12-------|
E|--------5-7---2-|----------------|--------5-7---2-|-----------------|
  1 & 2 & 3 & 4 &  1 & 2 & 3 & 4 &  1 & 2 & 3 & 4 &  1 & 2 & 3 & 4 &


[Pre-chorus] (1:31-1:40)

G|----------------|----------------|----------------|-----------------|
D|----------------|-----4/11-9---11|----------------|-----------------|
A|5-----5-----4---|------------12--|5-----5-------4-|------------16\4-|
E|--------5-7---2-|----------------|--------5-7-5---|-----------------|
  1 & 2 & 3 & 4 &  1 & 2 & 3 & 4 &  1 & 2 & 3 & 4 &  1 & 2 & 3 & 4 &


[Chorus] (1:40-2:07) 

G|----------------|----------------|----------------|-----------------|
D|----------------|----------------|----------------|----------9-9/11\| x3
A|5-----5-----4---|----------2/4/9\|5-----5-----4---|------9-12-------|
E|--------5-7---2-|----------------|--------5-7---2-|-----------------|
  1 & 2 & 3 & 4 &  1 & 2 & 3 & 4 &  1 & 2 & 3 & 4 &  1 & 2 & 3 & 4 &


[Bridge] (2:07-2:25) 

G|----------------|----------------|----------------|-----------------|
D|----------------|----------------|----------------|-----------------| x2
A|----------------|----------------|----------------|-----------------|
E|----------------|----------------|----------------|-----------------|
  1 & 2 & 3 & 4 &  1 & 2 & 3 & 4 &  1 & 2 & 3 & 4 &  1 & 2 & 3 & 4 & 


[Chorus] (2:25-3:21)

G|----------------|----------------|----------------|-----------------|
D|----------------|----------------|----------------|-----------------|
A|----------------|----------------|----------------|-----------------|
E|----------------|----------------|----------------|-----------------|
  1 & 2 & 3 & 4 &  1 & 2 & 3 & 4 &  1 & 2 & 3 & 4 &  1 & 2 & 3 & 4 & 

G|----------------|----------------|----------------|-----------------|
D|----------------|----------------|----------------|-----------------|
A|----------------|----------------|----------------|------------16\4-|
E|----------------|----------------|----------------|-----------------|
  1 & 2 & 3 & 4 &  1 & 2 & 3 & 4 &  1 & 2 & 3 & 4 &  1 & 2 & 3 & 4 & 

G|----------------|----------------|----------------|-----------------|
D|----------------|----------------|----------------|----------9-9/11\| x2
A|5-----5-----4---|----------2/4/9\|5-----5-----4---|------9-12-------|
E|--------5-7---2-|----------------|--------5-7---2-|-----------------|
  1 & 2 & 3 & 4 &  1 & 2 & 3 & 4 &  1 & 2 & 3 & 4 &  1 & 2 & 3 & 4 &

G|----------------|----------------|----------------|-----------------|
D|----------------|----------------|----------------|----------9-9/11\| 
A|5-----5-----4---|----------2/4/9\|5-----5-----4---|------9-12-------|
E|--------5-7---2/|----------------|--------5-7---2/|-----------------|
  1 & 2 & 3 & 4 &  1 & 2 & 3 & 4 &  1 & 2 & 3 & 4 &  1 & 2 & 3 & 4 &

G|----------------|----------------|----------------|-----------------|
D|----------------|----------------|----------------|-----------------| 
A|5-----5-----4---|----------2/4/9\|5-----5-----4---|2-2/4---9-9-9-9--|
E|--------5-7---2-|--22--2---------|--------5-7---2-|------2/---------|
  1 & 2 & 3 & 4 &  1 & 2 & 3 & 4 &  1 & 2 & 3 & 4 &  1 & 2 & 3 & 4 &            
Submit corrections

↑ Back to top | Tablatures and chords for acoustic guitar and electric guitar, ukulele, drums are parodies/interpretations of the original songs. You may use it for private study, scholarship, research or language learning purposes only