Home » E » Echosmith »

Echosmith - Lets Love Tabs

Artists:  A B C D E F G H I J K L M N O P Q R S T U V W X Y Z # 

Lets Love Tabs

(ver. 1) Click to play this song!
Echosmith
Tuning:Standard 

e|--------8----------------------8-----------10------------------------------| Intro x2  
B|---8-10---8-----8-----8-8-8-10---8-----8-----------------------------------|
G|------------9-9---9----------------9-9---9---------------------------------|
D|---------------------------------------------------------------------------|
A|---------------------------------------------------------------------------|
E|---------------------------------------------------------------------------|

e|---8-7-7-------------------------------------------------------------------| Verse 1  
B|---------10-8---10-8-------------------------------------------------------|
G|---------------------7-5---5-7-9-9---5-10-9-9------------------------------| I'm just a girl,from the 
D|---------------------------------------------------------------------------| city/You came to me,like 
A|---------------------------------------------------------------------------| cavalry 
E|---------------------------------------------------------------------------|

e|---------------------------------------------------------------------------| Verse 1 
B|---------------------------------------------------------------------------|
G|---5-9-7-10-9-7-9-7-9---5-5-7-9-9---9-12-12-14-9---------------------------| Now all I want is to hold 
D|---------------------------------------------------------------------------| you now/I've been saving 
A|---------------------------------------------------------------------------| my soul,for someone like you 
E|---------------------------------------------------------------------------|

e|----------------------8------------7-7-------------------------------------| Chorus 
B|-----8-8---10-8-8---8---8--------------10-8--------------------------------|
G|---5------------------------5-5-5------------------------------------------| So let's love,while we're 
D|---------------------------------------------------------------------------| young/So let's love,before 
A|---------------------------------------------------------------------------| we've even begun 
E|---------------------------------------------------------------------------|

e|--------------------8------------------------------------------------------| Chorus 
B|-----8-6-10-8-8---8---8---6-8-5--------------------------------------------|
G|---9-----------------------------------------------------------------------| Oh darling,we'll be fine/
D|---------------------------------------------------------------------------| So let's love,while we're 
A|---------------------------------------------------------------------------| young 
E|---------------------------------------------------------------------------|

e|--------8----------------------8-----------10------------------------------| Bridge   
B|---8-10---8-----8-----8-8-8-10---8-----8-----------------------------------|
G|------------9-9---9----------------9-9---9---------------------------------|
D|---------------------------------------------------------------------------|
A|---------------------------------------------------------------------------|
E|---------------------------------------------------------------------------|

e|---------------------------------------------------------------------------| Verse 2 
B|---------------------------------------------------------------------------|
G|---7-7-9-7-9---5-7-7-5-7-5---7-9-9---5-10-9-9------------------------------| You were the girl,that came 
D|---------------------------------------------------------------------------| with the sunrise/Long brown 
A|---------------------------------------------------------------------------| hair,and emerald eyes 
E|---------------------------------------------------------------------------|

e|---------------------------------------------------------------------------| Verse 2 
B|---------------------------------------------------------------------------|
G|---5-9-7-10-9-9-7-5-9-9---5-5-7-9-9---9-12-12-14-9-------------------------| Now I can't think of a day 
D|---------------------------------------------------------------------------| without you/I've been saving
A|---------------------------------------------------------------------------| my soul,for someone like you
E|---------------------------------------------------------------------------|

e|----------------------8------------7-7-------------------------------------| Chorus 
B|-----8-8---10-8-8---8---8--------------10-8--------------------------------|
G|---5------------------------5-5-5------------------------------------------| So let's love,while we're 
D|---------------------------------------------------------------------------| young/So let's love,before 
A|---------------------------------------------------------------------------| we've even begun 
E|---------------------------------------------------------------------------|

e|--------------------8------------------------------------------------------| Chorus 
B|-----8-6-10-8-8---8---8---6-8-5--------------------------------------------|
G|---9-----------------------------------------------------------------------| Oh darling,we'll be fine/
D|---------------------------------------------------------------------------| So let's love,while we're 
A|---------------------------------------------------------------------------| young 
E|---------------------------------------------------------------------------|

e|--------8----------------------8-----------10------------------------------| Bridge   
B|---8-10---8-----8-----8-8-8-10---8-----8-----------------------------------|
G|------------9-9---9----------------9-9---9---------------------------------|
D|---------------------------------------------------------------------------|
A|---------------------------------------------------------------------------|
E|---------------------------------------------------------------------------|

e|---------------------------------------------------------------------------| Bridge 
B|---------------------------------------------------------------------------|
G|---7-9-7-9---7-5-7-5---5-5-7-9-7-9---5-10-9----------5/7-7/9-9-9-9-9-9-9---|
D|--------------------------------------------5/7-7/10-----------------------|
A|---------------------------------------------------------------------------|
E|---------------------------------------------------------------------------|

e|----------------------8------------7-7-------------------------------------| Chorus 
B|-----8-8---10-8-8---8---8--------------10-8--------------------------------|
G|---5------------------------5-5-5------------------------------------------| So let's love,while we're 
D|---------------------------------------------------------------------------| young/So let's love,before 
A|---------------------------------------------------------------------------| we've even begun 
E|---------------------------------------------------------------------------|

e|--------------------8------------------------------------------------------| Chorus 
B|-----8-6-10-8-8---8---8---6-8-5--------------------------------------------|
G|---9-----------------------------------------------------------------------| Oh darling,we'll be fine/
D|---------------------------------------------------------------------------| So let's love,while we're 
A|---------------------------------------------------------------------------| young 
E|---------------------------------------------------------------------------|

e|--------8----------------------8-----------10------------------------------| Final    
B|---8-10---8-----8-----8-8-8-10---8-----8-----------------------------------|
G|------------9-9---9----------------9-9---9---------------------------------|
D|---------------------------------------------------------------------------|
A|---------------------------------------------------------------------------|
E|---------------------------------------------------------------------------|

e|--------8----------------------8-----------10---8H-------------------------| Final    
B|---8-10---8-----8-----8-8-8-10---8-----8-----------------------------------|
G|------------9-9---9----------------9-9---9---------------------------------|
D|---------------------------------------------------------------------------|
A|---------------------------------------------------------------------------|
E|---------------------------------------------------------------------------|            
Submit corrections

↑ Back to top | Tablatures and chords for acoustic guitar and electric guitar, ukulele, drums are parodies/interpretations of the original songs. You may use it for private study, scholarship, research or language learning purposes only