Home » E » Echosmith »

Echosmith - Get Into My Car Bass

Artists:  A B C D E F G H I J K L M N O P Q R S T U V W X Y Z # 

Get Into My Car Bass

(ver. 1) Click to play this song!
Echosmith

[Intro] (0:00-0:10)

G|-----------------------------------|-----------------------------------|
D|-----------------------------------|-----------------------------------| x2
A|--------------NO-BASS--------------|--------------NO-BASS--------------|
E|-----------------------------------|-----------------------------------|


[Verse 1] (0:10-0:52)

G|-----------------------------------|-----------------------------------|
D|-----------------------------------|-----------------------------------| x4
A|--------------NO-BASS--------------|--------------NO-BASS--------------|
E|-----------------------------------|-----------------------------------|

G|-----------------------------------|-----------------------------------|
D|-----------------------------------|-----------------------------------|
A|-----------------------------------|-----------------------------------|
E|--1----1----1----------------------|--1----1----1-----------------5----|

G|-----------------------------------|-----------------------------------|
D|-----------------------------------|-----------------------------------|
A|-----------------------------------|-----------------------------------|
E|--6----6----6----------------------|--6----6----6----------------------|

G|-----------------------------------|-----------------------------------|
D|-----------------------------------|-----------------------------------|
A|--5----5----5----------------------|--5----5----5----------------------|
E|-----------------------------------|-----------------------------------|

G|-----------------------------------|-----------------------------------|
D|-----------------------------------|-----------------------------------|
A|-----------------------------------|-----------------------------------|
E|--6----6----6----------------------|--6----6----6----------------------|


[Chorus] (0:52-1:12)

G|-----------------------------------|-----------------------------------|
D|-----------------------------------|-----------------------------------|
A|-----------------------------------|-----------------------------------|
E|--1-1-1-1-1-1-1-1-1-1-1-1-1-1-1-1--|--1-1-1-1-1-1-1-1-1-1-1-1-1-1-1-1--|

G|-----------------------------------|-----------------------------------|
D|-----------------------------------|-----------------------------------|
A|-----------------------------------|-----------------------------------|
E|--6-6-6-6-6-6-6-6-6-6-6-6-6-6-6-6--|--6-6-6-6-6-6-6-6-6-6-6-6-6-6-6-6--|

G|-----------------------------------|-----------------------------------|
D|-----------------------------------|-----------------------------------|
A|--5-5-5-5-5-5-5-5-5-5-5-5-5-5-5-5--|--5-5-5-5-5-5-5-5-5-5-5-5-5-5-5-5--|
E|-----------------------------------|-----------------------------------|

G|-----------------------------------|-----------------------------------|
D|-----------------------------------|-----------------------------------|
A|-----------------------------------|-----------------------------------|
E|--6-6-6-6-6-6-6-6-6-6-6-6-6-6-6-6--|--6-6-6-6-6-6-6-6-6-6-6-6-6-6-6-6--|


[Verse 2] (1:12-1:33)

G|-----------------------------------|-----------------------------------|
D|-----------------------------------|-----------------------------------|
A|-----------------------------------|-----------------------------------|
E|--1----1----1----------------------|--1----1----1-----------------5----|

G|-----------------------------------|-----------------------------------|
D|-----------------------------------|-----------------------------------|
A|-----------------------------------|-----------------------------------|
E|--6----6----6----------------------|--6----6----6----------------------|

G|-----------------------------------|-----------------------------------|
D|-----------------------------------|-----------------------------------|
A|--5----5----5----------------------|--5----5----5----------------------|
E|-----------------------------------|-----------------------------------|

G|-----------------------------------|-----------------------------------|
D|-----------------------------------|-----------------------------------|
A|-----------------------------------|-----------------------------------|
E|--6----6----6----------------------|--6----6----6----------------------|


[Chorus] (1:33-1:54)

G|-----------------------------------|-----------------------------------|
D|-----------------------------------|-----------------------------------|
A|-----------------------------------|-----------------------------------|
E|--1-1-1-1-1-1-1-1-1-1-1-1-1-1-1-1--|--1-1-1-1-1-1-1-1-1-1-1-1-1-1-1-1--|

G|-----------------------------------|-----------------------------------|
D|-----------------------------------|-----------------------------------|
A|-----------------------------------|-----------------------------------|
E|--6-6-6-6-6-6-6-6-6-6-6-6-6-6-6-6--|--6-6-6-6-6-6-6-6-6-6-6-6-6-6-6-6--|

G|-----------------------------------|-----------------------------------|
D|-----------------------------------|-----------------------------------|
A|--5-5-5-5-5-5-5-5-5-5-5-5-5-5-5-5--|--5-5-5-5-5-5-5-5-5-5-5-5-5-5-5-5--|
E|-----------------------------------|-----------------------------------|

G|-----------------------------------|-----------------------------------|
D|-----------------------------------|-----------------------------------|
A|-----------------------------------|-----------------------------------|
E|--6-6-6-6-6-6-6-6-6-6-6-6-6-6-6-6--|--6-6-6-6-6-6-6-6-6-6-6-6-6-6-6-6--|


[Bridge] (1:54-2:15)

G|-----------------------------|---------------------------------------|
D|--8--8--8--8---8--8--8--8----|--10--10--10--10----10--10--10--10-----| x4
A|-------------8---------------|-----------------10--------------------|
E|-----------------------------|---------------------------------------|


[Chorus] (2:15-3:45)

G|-----------------------------------|-----------------------------------|  ***
D|-----------------------------------|-----------------------------------|    *
A|-----------------------------------|-----------------------------------|    *
E|--1-1-1-1-1-1-1-1-1-1-1-1-1-1-1-1--|--1-1-1-1-1-1-1-1-1-1-1-1-1-1-1-1--|    *
                                                                              *
G|-----------------------------------|-----------------------------------|    *
D|-----------------------------------|-----------------------------------|    *
A|-----------------------------------|-----------------------------------|    *
E|--6-6-6-6-6-6-6-6-6-6-6-6-6-6-6-6--|--6-6-6-6-6-6-6-6-6-6-6-6-6-6-6-6--|    *
                                                                              * x3
G|-----------------------------------|-----------------------------------|    *
D|-----------------------------------|-----------------------------------|    *
A|--5-5-5-5-5-5-5-5-5-5-5-5-5-5-5-5--|--5-5-5-5-5-5-5-5-5-5-5-5-5-5-5-5--|    *
E|-----------------------------------|-----------------------------------|    *
                                                                              *
G|-----------------------------------|-----------------------------------|    *
D|-----------------------------------|-----------------------------------|    *
A|-----------------------------------|-----------------------------------|    *
E|--6-6-6-6-6-6-6-6-6-6-6-6-6-6-6-6--|--6-6-6-6-6-6-6-6-6-6-6-6-6-6-6-6--|  ***

G|-----------------------------------|-----------------------------------|
D|-----------------------------------|-----------------------------------|
A|-----------------------------------|-----------------------------------| (fade)
E|--1--------------------------------|-----------------------------------|            
Submit corrections

↑ Back to top | Tablatures and chords for acoustic guitar and electric guitar, ukulele, drums are parodies/interpretations of the original songs. You may use it for private study, scholarship, research or language learning purposes only