Home » E » Echosmith »

Echosmith - Cool Kids Tabs

Artists:  A B C D E F G H I J K L M N O P Q R S T U V W X Y Z # 

Cool Kids Tabs

(ver. 1) Click to play this song!
Echosmith
[Intro]
Guitar 1 (Lead)
Capo: Fret 1
Tuning: Drop D
e|---------------------|---------------------|
B|---------------------|---------------------|
G|---------------------|---------------------|
D|---------------------|---------------------|
A|-----5-8--0-2-0------|-----5-8--0-2-0------|
D|-2/5--------------0--|-2/5--------------0--|


[Verse]
Guitar 1 (Lead)
Capo: Fret 1
Tuning Drop D
e|--------------------------------|-------------------------------------------|
B|--------------------------------|-------------------------------------------|
G|--------------------------------|-------------------------------------------|
D|----9----9---8----6-------------|----9----9-----9---8----6-------------------| x2
A|--7-----7---3----3--------5-5-5-|-7-7----7-----7---3----3------5-5-5---------|
E|-------------------------5-5-5--|7---------------------------5-5-5----------|

[Chorus]
Guitar 2 (Rhythm):
Capo: Fret 1
Tuning: Standard

Strumming Pattern:
D M U U D U
      Em        CM7       G6     Dadd4add9
e|----0-----|----0----|----0----|----0----|
B|----0-----|----0----|----0----|----3----|
G|----0-----|----0----|----0----|----0----|
D|----2-----|----2----|----0----|----4----| x2
A|----2-----|----3----|----2----|----5----|
E|----0-----|----x----|----3----|----x----|

Guitar 1 (Lead)
Capo: Fret 1
Tuning: Drop D
e|---------------------|---------------------|
B|---------------------|---------------------|
G|---------------------|---------------------|
D|---------------------|---------------------|
A|-----5-8--0-2-0------|-----5-8--0-2-0------|
D|-2/5--------------0--|-2/5--------------0--|

[Chorus]
Guitar 2 (Rhythm):
Capo: Fret 1
Tuning: Standard

Strumming Pattern:
D M U U D U

      Em        CM7       G6     Dadd4add9
e|----0-----|----0----|----0----|----0----|
B|----0-----|----0----|----0----|----3----|
G|----0-----|----0----|----0----|----0----|
D|----2-----|----2----|----0----|----4----| x2
A|----2-----|----3----|----2----|----5----|
E|----0-----|----x----|----3----|----x----|

Guitar 1 (Lead)
Capo: Fret 1
Tuning: Drop D
e|---------------------|---------------------|
B|---------------------|---------------------|
G|---------------------|---------------------|
D|---------------------|---------------------|
A|-----5-8--0-2-0------|-----5-8--0-2-0------|
D|-2/5--------------0--|-2/5--------------0--|

[Verse]
Guitar 1 (Lead)
Capo: Fret 1
Tuning Drop D
e|--------------------------------|-------------------------------------------|
B|--------------------------------|-------------------------------------------|
G|--------------------------------|-------------------------------------------|
D|----9----9---8----6-------------|----9----9-----9---8----6-------------------| x2
A|--7-----7---3----3--------5-5-5-|-7-7----7-----7---3----3------5-5-5---------|
E|-------------------------5-5-5--|7---------------------------5-5-5----------|

[Chorus]
Guitar 2 (Rhythm):
Capo: Fret 1
Tuning: Standard

Strumming Pattern:
D M U U D U

      Em        CM7       G6     Dadd4add9
e|----0-----|----0----|----0----|----0----|
B|----0-----|----0----|----0----|----3----|
G|----0-----|----0----|----0----|----0----|
D|----2-----|----2----|----0----|----4----| x4
A|----2-----|----3----|----2----|----5----|
E|----0-----|----x----|----3----|----x----|


Guitar 1 (Lead)
Capo: Fret 1
Tuning: Drop D
e|---------------------|---------------------|
B|---------------------|---------------------|
G|---------------------|---------------------|
D|---------------------|---------------------| 
A|-----5-8--0-2-0------|-----5-8--0-2-0------|
D|-2/5--------------0--|-2/5--------------0--|

e|---------------------|
B|---------------------|
G|---------------------|
D|---------------------| 
A|-----5-8--0-2-0------|
D|-2/5--------------0--|

N.C

[Chorus]
Guitar 2 (Rhythm):
Capo: Fret 1
Tuning: Standard

Strumming Pattern:
D M U U D U

      Em        CM7       G6     Dadd4add9
e|----0-----|----0----|----0----|----0----|
B|----0-----|----0----|----0----|----3----|
G|----0-----|----0----|----0----|----0----|
D|----2-----|----2----|----0----|----4----| x4-6 (Fade out)
A|----2-----|----3----|----2----|----5----|
E|----0-----|----x----|----3----|----x----|


[Outro]
Guitar 1 (Lead)
Capo: Fret 1
Tuning: Drop D
e|---------------------|---------------------|
B|---------------------|---------------------|
G|---------------------|---------------------|
D|---------------------|---------------------| x2-4 (Fade out)
A|-----5-8--0-2-0------|-----5-8--0-2-0------|
D|-2/5--------------0--|-2/5--------------0--|            
Submit corrections

↑ Back to top | Tablatures and chords for acoustic guitar and electric guitar, ukulele, drums are parodies/interpretations of the original songs. You may use it for private study, scholarship, research or language learning purposes only