Home » E » Echo And The Bunnymen »

Echo And The Bunnymen - Bring On The Dancing Horses Bass

Artists:  A B C D E F G H I J K L M N O P Q R S T U V W X Y Z # 

Bring On The Dancing Horses Bass

(ver. 1) Click to play this song!
Echo And The Bunnymen
-------------------------------------------------------------------------------
-------------------------------------------------------------------------------


Tuning: G D A E

 Intro and Verse 1:

G|--------------------------------------|\
D|---------------------------------6--8-| | x 8
A|-6------6-6----6------6----6--8-------| |
E|----5-8-----------5-8-----------------|/

 Chorus: 

G|--------------------------------------|\ 
D|---------------------------------6--8-| | x 2
A|-6------6-6----6------6----6--8-------| |
E|----5-8-----------5-8-----------------|/

G|------------------------------------------------|
D|------------------------------------------------|
A|-------------------------6--6-6-6-6-------------|
E|-4--4-4-4-4--6--6-6-6-6--------------4--4-4-4-4-|

G|-----------------------------------------|\
D|-----------------------------------------| | x 2
A|-6-6-------------------------------------| |
E|-------------6-6---------4-4---------4-4-|/

 Verse 2:

G|--------------------------------------|\
D|---------------------------------6--8-| | x 4
A|-6------6-6----6------6----6--8-------| |
E|----5-8-----------5-8-----------------|/

 Chorus 2: 

G|--------------------------------------|\ 
D|---------------------------------6--8-| | x 2
A|-6------6-6----6------6----6--8-------| |
E|----5-8-----------5-8-----------------|/

G|------------------------------------------------|
D|------------------------------------------------|
A|-------------------------6--6-6-6-6-------------|
E|-4--4-4-4-4--6--6-6-6-6--------------4--4-4-4-4-|

G|-----------------------------------------|\
D|-----------------------------------------| | x 2
A|-6-6-------------------------------------| |
E|-------------6-6---------4-4---------4-4-|/

 Break:

G|-----------------------------------------|\
D|-----------------------------------------| | x 6
A|-6-6-6-6-6-6-6-6/11-11-11-11-11-11-11-11-| |
E|-----------------------------------------|/

 Verse 3:

G|--------------------------------------|\
D|---------------------------------6--8-| | x 4
A|-6------6-6----6------6----6--8-------| |
E|----5-8-----------5-8-----------------|/

 Chorus 3: 

G|--------------------------------------|\ 
D|---------------------------------6--8-| | x 2
A|-6------6-6----6------6----6--8-------| |
E|----5-8-----------5-8-----------------|/

G|------------------------------------------------|
D|------------------------------------------------|
A|-------------------------6--6-6-6-6-------------|
E|-4--4-4-4-4--6--6-6-6-6--------------4--4-4-4-4-|

G|-----------------------------------------|\
D|-----------------------------------------| | x 2
A|-6-6-------------------------------------| |
E|-------------6-6---------4-4---------4-4-|/

 Break 2:

G|-----------------------------------------|\
D|-----------------------------------------| | Repeat until Fade
A|-6-6-6-6-6-6-6-6/11-11-11-11-11-11-11-11-| |
E|-----------------------------------------|/


here it is,I'm sorry for sending twice, but last one had a mistake. i have
corrected it, now it's ok, enjoy it-!

| /  slide up
| \  slide down
| h  hammer-on
| p  pull-off
| ~  vibrato
| +  harmonic
| x  Mute note
===============================================================================
            
Submit corrections

↑ Back to top | Tablatures and chords for acoustic guitar and electric guitar, ukulele, drums are parodies/interpretations of the original songs. You may use it for private study, scholarship, research or language learning purposes only