» » »

Ebba Gron - Staten Och Kapitalet Tabs

Artists:  A B C D E F G H I J K L M N O P Q R S T U V W X Y Z # 

Staten Och Kapitalet Tabs

(ver. 1) Click to play this song!
Ebba Gron
 Rating:
4.7/5 (15 votes)


 Staten Och Kapitalet lessons Tabs too difficult? Try these video lessons and learn fast
 
                This is an easy song to play.. Just play it:)

Standard tuning

Vers:
e-------------------------------------
b-------------------------------------
g-------------------------------------
d-------------------------------------
a-777777777777777--33333333--55555555-
E-555555555555555--11111111--33333333-

Chorus:
e--------------------------------------------------------------------
b--------------------------------------------------------------------
g--------------------------------------------------------------------
d---------------------------------------55555555------------77777777-
a-7777777777777777--33333333--55555555--33333333--33333333--55555555-
E-5555555555555555--11111111--33333333------------11111111-----------

e-------------------------------------------------------------------
b-------------------------------------------------------------------
g-------------------------------------------------------------------
d-----------55555555------------55555555------------5555555555555555
a-55555555--33333333--55555555--33333333--55555555--3333333333333333
E-33333333------------33333333------------33333333------------------

right before solo:
e-------------------------------------
b-------------------------------------
g-------------------------------------
d-------------------------------------
a-77777777--33333333--5555555555555555
E-55555555--11111111--3333333333333333

first solo:
e-------------------------------------------
b----55----55----55----55--5^^-5-3-1-3-1-0--
g-22----22----22----22---------------------0

second time:
e--------------------------------------3---------
b----55----55----55----55--5^^-5-3-1-3---0h2p0---
g-22----22----22----22--------------------------0

VERS

CHORUS

Second solo:
e-0-5-5-5-3-0-5-3-0-----------0-----3^^-1-0-------------------------5^^-
b-------------------------1-3---3-1---------3--4h5-5555-4h5-5555555-----
g--------------------0--2-----------------------------------------------

e-5-3-0---------------------3---3-----------
b-------3-1---1-1---1-1/5-5---5---5-3-1-0---
g-----------2-----2-----------------------0-

CHORUS

solo 1

VERS

CHORUS

Outro:
one guitar plays the rythm(the vers thing)
and the second guitar plays the first solo

that's it
            
Submit corrections



        Staten Och Kapitalet lessons Hard to play? Try these video lessons and learn fast Staten Och Kapitalet lessons
        
↑ Back to top | Tablatures and chords for acoustic guitar and electric guitar, ukulele, drums are parodies/interpretations of the original songs. You may use it for private study, scholarship, research or language learning purposes only